Guitaretab - guitar tabs
Song name
# A B C D E F G H I J K L M N O P Q R S T U V W X Y Z

Misc Unsigned Bands - Ef-el - Die Verlee tab

eF-eL  Die Verlee:

Intro:

E|-------------------------------------------------------------------|
B|-------------------------------------------------------------------|
G|----14-14-14-13-13-13-11-11------5~--------14-14-14-13-13-13-11-11-|
D|----x x x x x x x x x x x x-2~---5~---5~---x x x x x x x x x x x x-|
A|----12-12-12-11-11-11--9--9-2~---3~---5~---12-12-12-11-11-11--9--9-|
E|----------------------------0~--------3~---------------------------|

Riff 1:
E|---------------------------------------------------|
B|---------------------------------------------------|
G|-9-9-12-11-9-9-9-12-11-7-7-7-12-11-----------------|
D|-x x x x x x x x x x x x x x x x x-7-7-7-7-7-7-7-7-|   x2
A|-7-7-10--9-7-7-7-10--9-5-5-5-10--9-7-7-7-7-7-7-7-7-|
E|-----------------------------------5-5-5-5-5-5-5-5-|

Riff 2:
E|------------------------------------|
B|------------------------------------|
G|-14br-14-12-------------------------|
D|------------14-14---12-14-12-14-12~-|
A|------------------------------------|
E|------------------------------------|

E|---------------------------------------|
B|---------------------------------------|
G|-12-14br-14-12-------------------------|
D|---------------14-14---12-14-12-14-12~-|   x2
A|---------------------------------------|
E|---------------------------------------|

E|-----------------------------------|
B|-----------------------------------|
G|-14-14--x---x--12-12--x---x--11-12-|
D|-x x x--x---x- x x x--x---x--x x x-|
A|-12-12--x---x--10-10--x---x---9-10-|
E|-----------------------------------|

E|------------------------------------|
B|------------------------------------|
G|-14br-14-12-------------------------|
D|------------14-14---12-14-12-14-12~-|
A|------------------------------------|
E|------------------------------------|


E|---------------------------------------|
B|---------------------------------------|
G|-12-14br-14-12-------------------------|
D|---------------14-14---12-14-12-14-12~-|   x2
A|---------------------------------------|
E|---------------------------------------|

E|-------------------------------------------------|
B|-------------------------------------------------|
G|-14-14-14-14-12-12-12-12-11-11-11-11-12-12-12-12-|
D|-x x x x x x x x x x x x x x x x x x x x x x x x-
A|-12-12-12-12-10-10-10-10--9--9--9--9-10-10-10-10-|
E|-------------------------------------------------|

Verse 1:
E|------------------------------------------------|
B|------------------------------------------------|
G|-9--------5---------------------------7---7---7-|
D|-9--------5-5-5-5-5-5-5-5-------------7-7-7-7-7-|
A|-7--------3-3-3-3-3-3-3-5-5-5-5-5-5-5-5-5-5-5-5-|
E|------------------------3-3-3-3-3-3-3-----------|
              * * * * * *   * * * * * *   *   *

E|-----------------------------------------------------|
B|-----------------------------------------------------|
G|---------------5---------------------------7-----7-7-|
D|-2-------------5-5-5-5-5-5-5-5-------------7-7-7-7-7-|
A|-2-2-2-2-2-2-2-3-3-3-3-3-3-3-5-5-5-5-5-5-5-5-5-5-5-5-|
E|-0-0-0-0-0-0-0---------------3-3-3-3-3-3-3-----------|
     * * * * * *   * * * * * *   * * * * * *   * *

E|---------------------------------------------------------------|
B|---------------------------------------------------------------|
G|-----------------5-5-5-5-5-5-5-5-----------------x-x---x---x-x-|
D|-2-2-2-2-2-2-2-2-5-5-5-5-5-5-5-5-5-5-5-5-5-5-5-5-x-x---x---x-x-|
A|-2-2-2-2-2-2-2-2-3-3-3-3-3-3-3-3-5-5-5-5-5-5-5-5-x-x---x---x-x-|
E|-0-0-0-0-0-0-0-0-----------------3-3-3-3-3-3-3-3---------------|

Pre-chorus:
E|---------------------------------------------------------------------|
B|---------------------------------------------------------------------|
G|---------5-5-5---------------------------5-5-5-----------------------|
D|-2-2-2---5-5-5---5-5-5---7-7-7---2-2-2---5-5-5---5-5-5---7-7-7-7-7-7-|
A|-2-2-2---3-3-3---5-5-5---7-7-7---2-2-2---3-3-3---5-5-5---7-7-7-7-7-7-|
E|-0-0-0-----------3-3-3---5-5-5---0-0-0-----------3-3-3---5-5-5-5-5-5-|

Riff 3: (strum die deel   |  | ||)
E|----------------------------|
B|----------------------------|
G|-9-9-9-9-5-5-5-5-7-7-7-7-9~-|
D|-x x x x x x x x x x x x x-
A|-7-7-7-7-3-3-3-3-5-5-5-5-7~-|
E|----------------------------|

Verse 1:
E|-----------------------------------------------------|
B|-----------------------------------------------------|
G|-9-------------5---------------------------7-----7-7-|
D|-9-9-9-9-9-9-9-5-5-5-5-5-5-5-5-------------7-7-7-7-7-|
A|-7-7-7-7-7-7-7-3-3-3-3-3-3-3-5-5-5-5-5-5-5-5-5-5-5-5-|
E|-----------------------------3-3-3-3-3-3-3-----------|
     * * * * * *   * * * * * *   * * * * * *   * *

E|-----------------------------------------------------|
B|-----------------------------------------------------|
G|---------------5---------------------------7-----7-7-|
D|-2-------------5-5-5-5-5-5-5-5-------------7-7-7-7-7-|
A|-2-2-2-2-2-2-2-3-3-3-3-3-3-3-5-5-5-5-5-5-5-5-5-5-5-5-|
E|-0-0-0-0-0-0-0---------------3-3-3-3-3-3-3-----------|
     * * * * * *   * * * * * *   * * * * * *   * *

E|---------------------------------|
B|---------------------------------|
G|-----------5-5-5-5-------------7-|
D|-2-2-2-2---5-5-5-5---5-5-5-5---7-|
A|-2-2-2-2---3-3-3-3---5-5-5-5---5-|
E|-0-0-0-0-------------3-3-3-3-----|

Repeat pre-chorus
[ Tab from: http://www.guitaretab.com/m/misc-unsigned-bands/118390.html ]
Chorus:
E|-------------------------------------------------------------|
B|-------------------------------------------------------------|
G|-9-9-9-9-9-9-9-9-9-9-5-5-5-5-5-5-5-5-5-5---------------------|
D|-9-9-9-9-9-9-9-9-9-9-5-5-5-5-5-5-5-5-5-5-5-5-5-5-5-5-5-5-5-5-|
A|-7-7-7-7-7-7-7-7-7-7-3-3-3-3-3-3-3-3-3-3-5-5-5-5-5-5-5-5-5-5-|
E|-----------------------------------------3-3-3-3-3-3-3-3-3-3-|

E|---------------------|
B|---------------------|
G|-7-7-7-7-7-7-7-7-7-7-|
D|-7-7-7-7-7-7-7-7-7-7-|
A|-5-5-5-5-5-5-5-5-5-5-|
E|---------------------|

E|-------------------------------------------------------------|
B|-------------------------------------------------------------|
G|-9-9-9-9-9-9-9-9-9-9-5-5-5-5-5-5-5-5-5-5---------------------|
D|-9-9-9-9-9-9-9-9-9-9-5-5-5-5-5-5-5-5-5-5-5-5-5-5-5-5-5-5-5-5-|
A|-7-7-7-7-7-7-7-7-7-7-3-3-3-3-3-3-3-3-3-3-5-5-5-5-5-5-5-5-5-5-|
E|-----------------------------------------3-3-3-3-3-3-3-3-3-3-|

E|---------------------|
B|---------------------|
G|-7-7-7-7-7-7-7-7-7-7-|
D|-7-7-7-7-7-7-7-7-7-7-|
A|-5-5-5-5-5-5-5-5-5-5-|
E|---------------------|

Riff 4:
E|-------------------------------------------------|
B|-------------------------------------------------|
G|-9-9-9-9-9-9-9-9-9-9-9-9-9-9-9-9-9-9-9-9-9-9-9-9-|
D|-x x x x x x x x x x x x x x x x x x x x x x x x-
A|-7-7-7-7-7-7-7-7-7-7-7-7-7-7-7-7-7-7-7-7-7-7-7-7-|
E|-------------------------------------------------|

E|-------------------------|
B|-------------------------|
G|-11-11-11-11-12-12-12-12-|
D|-x x x x x x x x x x x x-
A|--9--9--9--9-10-10-10-10-|
E|-------------------------|

Bridge A:
E|--------------------------------------------------------------------|
B|--------------------------------------------------------------------|
G|---------------------5-5-5---5---5-5-5-5-----------7~---7-7-7-7-7-7-|
D|-2-2-2---2---2-2-2-2-5-5-5---5---5-5-5-5-5~----5-5-7~---7-7-7-7-7-7-|
A|-2-2-2---2---2-2-2-2-3-3-3---3---3-3-3-3-5~----5-5-5~---5-5-5-5-5-5-|
E|-0-0-0---0---0-0-0-0---------------------3~----3-3------------------|

E|--------------------------------------------------------------------|
B|--------------------------------------------------------------------|
G|---------------------5-5-5---5---5-5-5-5-----------7~---7-7-7-7-7-7-|
D|-2-2-2---2---2-2-2-2-5-5-5---5---5-5-5-5-5~----5-5-7~---7-7-7-7-7-7-|
A|-2-2-2---2---2-2-2-2-3-3-3---3---3-3-3-3-5~----5-5-5~---5-5-5-5-5-5-|
E|-0-0-0---0---0-0-0-0---------------------3~----3-3------------------|

Acoustic deel:
Chords:   (Em C#m4 G D)
 - Em     022000
 - C#m4   -32033
 - G      320033
 - D      --0232   -   maar die D gaan so--------|
                       E|-2-2-2-2-2-3-2-0-0h2-2--|
                       B|-3-3-3-3-3-3-3-3-3-3-3--|
                       G|-2-2-2-2-2--------------|
                       D|-0-0-0-0-0--------------|
                       A|------------------------|
                       E|------------------------|
 herhaal dit tot distortion:
E|-----------------------------------|
B|-----------------------------------|
G|-14-14-14-14--14--14---------------|
D|-x x x x x x x x x x-x x  x  x x-
A|-12-12-12-12--12--12-x x  x  x x-|
E|---------------------x x  x  x x-|

Solo:
Rhythm:
E|-------------------------------------------------------------------|
B|-------------------------------------------------------------------|
G|-------5~~---------14-14-14-14-12-12-12-12-11-11-11-11-12-12-12-12-|
D|-2~~---5~~---5~~---x x x x x x x x x x x x x x x x x x x x x x x x-|
A|-2~~---3~~---5~~---12-12-12-12-10-10-10-10--9--9--9--9-10-10-10-10-|
E|-0~~~--------3~~~--------------------------------------------------|

Chorus:   vinnige op-en-af strumming
E|--------------------------------|
B|--------------------------------|
G|-9-     -5-     ---------7------|
D|-9- x16 -5- x16 -5-     -7- x16-|
A|-7-     -3-     -5- x16 -5------|
E|-----------------3-     --------|

Bridge B:
E|------------------------------------|
B|------------------------------------|
G|-14br-14-12-------------------------|
D|------------14-14---12-14-12-14-12~-|
A|------------------------------------|
E|------------------------------------|

E|---------------------------------------|
B|---------------------------------------|
G|-12-14br-14-12-------------------------|
D|---------------14-14---12-14-12-14-12~-|   x2
A|---------------------------------------|
E|---------------------------------------|

E|-----------------------------------|
B|-----------------------------------|
G|-14-14--x---x--12-12--x---x--11-12-|
D|-x x x--x---x- x x x--x---x--x x x-|
A|-12-12--x---x--10-10--x---x---9-10-|
E|-----------------------------------|

E|------------------------------------|
B|------------------------------------|
G|-14br-14-12-------------------------|
D|------------14-14---12-14-12-14-12~-|
A|------------------------------------|
E|------------------------------------|

E|---------------------------------------|
B|---------------------------------------|
G|-12-14br-14-12-------------------------|
D|---------------14-14---12-14-12-14-12~-|   x2
A|---------------------------------------|
E|---------------------------------------|

E|-------------------------------------------------|
B|-------------------------------------------------|
G|-14-14-14-14-12-12-12-12-11-11-11-11-12-12-12-12-|
D|-x x x x x x x x x x x x x x x x x x x x x x x x-
A|-12-12-12-12-10-10-10-10--9--9--9--9-10-10-10-10-|
E|-------------------------------------------------|

Outro:   luister mooi na song om die timing reg te kry
E|-------------------------|
B|-------------------------|
G|-9-9-5-7-------7-7-7-7-9-|
D|-x x x x-7-5-5-x x x x x-|
A|-7-7-3-5-7-5-5-5-5-5-5-7-|
E|---------5-3-3-----------|
Related for Ef-el - Die Verlee tab