Song name
# A B C D E F G H I J K L M N O P Q R S T U V W X Y Z

Misc Unsigned Bands - Grescale - Question tab

Question
Gre'Scale

Keyboard Riff Arr. for Guitar
e:------------------5-7-5----------------5-7-5-----------------------|
B:------------8-7-8-------8-7-8----8-7-8-------8-7-8-----------------|
G:---7-6-7-----------------------------------------------------------|
D:----------7--------------------------------------------------------|
A:-9--------5--------------------7-----------------------------------|
E:-7-----------------------------5-----------------------------------|

e:---7-6-5-4-3-2-----------------------------------------------------|
B:---------------6-5-4-3-2-------------------------------------------|
G:-------------------------------------------------------------------|
D:-------------------------------------------------------------------|
A:-2-----------------------------------------------------------------|
E:-0-----------------------------------------------------------------|

Main Guitar Riff
e:-------------------------------------------------------------------|
B:-------------------------------------------------------------------|
G:--------------7-7777777777-----------------------------------------|
D:-9-9999999999-7-7777777777-7-7777777777-2-2222222222---------------|
A:-9-9999999999-5-5555555555-7-7777777777-2-2222222222---------------|
E:-7-7777777777--------------5-5555555555-0-0000000000---------------|
     .. .. .. .   .. .. .. .   .. .. .. .   .. .. .. .               |
                                                                     |
G:-------------------------------------------------------------------|
D:-------------------------------------------------------------------|
A:--------------5----------------------------------------------------|
E:-7-------------------------5------------0--------------------------|

Solo 1
e:-7^-7h9p7-9/12-10-9-10-7h9p7-12-10-9-10-9-7-9----------------------|
B:-9^----------------------------------------------------------------|
G:-------------------------------------------------------------------|
D:-------------------------------------------------------------------|
A:-------------------------------------------------------------------|
E:-------------------------------------------------------------------|

e:-7h9p7-------------------------------------------------------------|
B:-------12-10-9-10--15-13-12-13-12h13p12----------------------------|
G:----------------------------------------15-13-12-13-12-10-12~------|
D:-------------------------------------------------------------------|
A:-------------------------------------------------------------------|
E:-------------------------------------------------------------------|

e:-12^-12h13p12-13/19-17-15-1719p17p15-(t21p19p17p15)----------------|
B:-13^----------------------------------this part is-----------------|
G:---------------------------------------really fast-----------------|
D:-------------------------------------------------------------------|
A:-------------------------------------------------------------------|
E:-------------------------------------------------------------------|

e:-------------------------------------------------------------------|
B:-19-17-15-17-15h17p15/20-19-17-19-17h19p17-------------------------|
G:-------------------------------------------19-17-16-17-16-14-16~---|
D:-------------------------------------------------------------------|
A:-------------------------------------------------------------------|
E:-------------------------------------------------------------------|

Solo 2
e:-12p10p9h10p9----------------------------------------12-10-9-10----|
B:--------------12-10-9-10-12-10-10p9h12p9h10p9-9h10p9---------------|
G:-------------------------------------------------------------------|
D:-------------------------------------------------------------------|
A:-------------------------------------------------------------------|
E:-------------------------------------------------------------------|


e:-19p17p15-----------------------14^-14^-14^-14h15p14-14^-14^-14^~--|
B:----------19^-17h19p17-12-14-15-15^-15^-15^----------15^-15^-15^~--|
G:-------------------------------------------------------------------|
D:-------------------------------------------------------------------|
A:-------------------------------------------------------------------|
E:-------------------------------------------------------------------|

Tap to rate this tab
# A B C D E F G H I J K L M N O P Q R S T U V W X Y Z