Song name
# A B C D E F G H I J K L M N O P Q R S T U V W X Y Z

Misc Unsigned Bands - White Crow - Down tab

these are the cords that I used throughout the song.

  E---0----|       and also      E---0----|     
  B---0----|                     B---0----|
  G---2----|                     G---0----|
  D---0----|                     D---2----|
  A---2----|                     A---2----|
  E---3----|                     E---0----|
   (made up)                       (e cord)

E-------------------------------------| \
B-------------------------0-----------|  \ 
G----------2----2-----2-----2---2-----|   \
D-------0----0----0-----------0-------|    |
A-----2---2----2----2---2-------------|    |
E---3---------------------------------|    |
                                           |  x4
E-------------------------------------|    |
B-------------------------------------|    |
G-----------0---------------0---------|    |
D-------2-----2---2-----2-----2---2---|   /
A-----2---2-----2-----2---2-----2-----|  /
E---0---------------0-----------------|/
                                      
                                      
                                      
E-------------------------------------|\
B-------------------------------------| \
G-----2-----2------2-2-----2-2--------|  \
D-----0-----0------0-0-----0-0--------|   |
A-----2-----2------2-2-----2-2--------|   |
E---0---0-0---0--0-----0-0------------|   |
                                          |   x5
E-------------------------------------|   |
B-------------------------------------|   |
G-------2-2---2------2-2-----2-2------|   |
D-------0-0---0------0-0-----0-0------|  /
A-------2-2---2------2-2-----2-2------| /
E---0-0-----0---0--0-----0-0----------|/


Tap to rate this tab
 
# A B C D E F G H I J K L M N O P Q R S T U V W X Y Z