Song name
# A B C D E F G H I J K L M N O P Q R S T U V W X Y Z

Misc Unsigned Bands - Arthur Alexander - Sally Sue Brown tab

-------------------------------------------------------------------------------
			     SALLY SUE BROWN - Arthur Alexander
-------------------------------------------------------------------------------
Tabbed by: darkstar94
Email: darkstar94@hotmail.com

Tuning: Standard

Play with this intro riff over the D chord

Intro:

e|------------------|-------------------|
B|------------------|-------------------|
G|------------------|-------------------|
D|------------------|--0--(0)-3b4--0----|
A|--0--3p0---3p0----|-------------------|
E|------------------|-------------------|x4

Do this riff over the A chord in the verse:

e|------------------------------------------------|
B|------------------------------------------------|
G|------------------------------------------------|
D|--2--2-4--4-5--5-4--4-5--5-4--4-5--4-5--4--4----|
A|--0--0-0--0-0--0-0--0-0--0-0--0-0--0-0--0--0----|
E|------------------------------------------------|

Solo:

e|---------------------------------------------|------------------------|
B|-----10--10----10--10----10--10----10--10----|--10--10----15--15---15-|
G|-----10--10----10--10----10--10----10--10----|--10--10----14--14---14-|
D|--0---------0---------0---------0----------0-|------------------------|
A|---------------------------------------------|------------------------|
E|---------------------------------------------|------------------------|

e|----------------------------|--3------------3---3--3--|--3--------------|
B|--12------------------------|--3--5--3------3---3--3--|--3--5--3--------|
G|--12------10h11-------------|-----5--3tr4-------------|-----5--3tr4-----|
D|------12---------12\--------|-------------------------|-----------------|
A|----------------------------|-------------------------|-----------------|
E|----------------------------|-------------------------|-----------------|

e|------------------------------------------------|
B|------------------------------------------------|
G|------------------------------------------------|
D|--2--2-4--4-5--5-4--4-2--2------0--3s4--5-------|
A|--0--0-0--0-0--0-0--0-0--0-3--4-----------------|
E|------------------------------------------------|

There are lots of little ghost notes, listen out for them, the 10's at the start of the 
have a slight bend on them


Chords:

D
Look who's back in town
Ain't no body but Sally Sue Brown
G
All you boys better run for cover
A
If you don't wanna be a broken heart lover

D
See her in that red tight skirt
Got what it takes just to make you hurt
G
Don't be deceived by them big bright eyes
A
She made of cheating misery and low down lies

G
Makes no difference where she's been
D
I know Sal's been doing those things again
G
Breaking hearts on down the line
A
Like she broke this heart of mine

D
Here she comes now down my way
Like a fool I know I'm gonna say
G
"Glad you're back Sally Sue Brown
A
Let me love you baby don't put me down"

Solo

G
Makes no difference where she's been
D
I know Sal's been doing those things again
G
Breaking hearts on down the line
A
Like she broke this heart of mine

D
Here she comes now down my way
Like a fool I know I'm gonna say
G
"Glad you're back Sally Sue Brown
A
Let me love you baby don't put me down"

D
Don't put me down, don't do it
You ain't no good but I love yeah
You ain't no good but I love, love, love yeah
You ain't no good but I love yeah

fade

Any questions?  e-mail me
Tap to rate this tab
 
# A B C D E F G H I J K L M N O P Q R S T U V W X Y Z