Song name
# A B C D E F G H I J K L M N O P Q R S T U V W X Y Z

Misc Unsigned Bands - Korupture - Destructor tab

     “DESTRUCTOR” - GUITAR TAB

     Korupture - “The Book of Time” {2008}
     Tuning - D STANDARD {2 Half Steps Down}
     Transcribed by Corey Davis {Destructor666}


1.1  e|-----------------------------------------------|
     B|-----------------------------------------------|
     G|-----------------------------------------------|
     D|-----------------------------------------------|
     A|-2--------------------2------------------------|
     E|-0--0--0--000--0--0---0----0--0--000--000------|
           *  *  ***  *  *        *  *  ***  ***

1.2  e|-----------------------------------------------|
     B|-----------------------------------------------|
     G|-----------------------------------------------|
     D|-----------------------------------------------|
     A|-2--------------------3-------3-----3-3-3-3----|
     E|-0--0--0--000--0--0---1-------1-----1-1-1-1----|
           *  *  ***  *  *
       Gtr.2
     e|---------------|
     B|---------------|
     G|---------------|
     D|-2---2---2---3-|
     A|-2---2---2---3-|
     E|-------------1-|


                     PLAY 1.1 FOUR TIMES

2.1  e|-----------------------------------------------|
     B|-----------------------------------------------|
 X2  G|-----------------------------------------------|
time D|--7---------8-----7-----5------7-------12------|
     A|--9--------10-----9-----7------9-------10------|
     E|-----------------------------------------------|


     e|-----------------------------------------------|
     B|-----------------------------------------------|
 X2  G|-----------------------------------------------|
time D|--7---------8-----7-----5------5-------3-------|
     A|--9--------10-----9-----7------3-------1-------|
     E|-----------------------------------------------|


                     PLAY 1.1 FOUR TIMES


3.1  e|-----------------------------------------------|
     B|--------1p0--------------------------1p0-------|
     G|------------------0h2-----1--------------------|
     D|------2---------------------------2------------|
     A|-----------------------------------------------|
     E|-0-0---------0-0-------0-----0-0---------------|
        * *         * *       *     * *


     e|--------------------------|
     B|--------------------------|
     G|--------------------------|
     D|---------------------3----|
     A|---------------------3----|
     E|----5---5--3--1--0---1----|
               *  *  *  *

                       PLAY 3.1 AGAIN
4.1  e|-----------------------------------------------|
     B|-----------------------------------------------|
     G|-----------------------------------------------|
     D|-2-2--2h3--2-2--2h3--2-2--2h3--0h3-2p0-5p3-0h3-|
     A|-----------------------------------------------|
     E|-----------------------------------------------|

   

Gtr.2e|-------------------------------|
     B|-------------------------------|
     G|-------------------------------|
     D|--9----9-/10/9-----9--9-\\\----|
     A|--7----7/-8/-7-----7--7---\\\--|
     E|-------------------------------|
PLAY SECOND TIME

     “The blood-red moon is rising…”
4.1  e|-----------------------------------------------|
     B|-----------------------------------------------|
     G|-----------------------------------------------|
     D|-2-2--2p3--2-2--2p3--2-2--2p3--0p3-2p0-5p3-0p3-|
     A|-----------------------------------------------|
     E|-----------------------------------------------|


     e|-----------------------------------------------|
     B|-----------------------------------------------|
     G|-----------------------------------------------|
     D|-2-2--2p3--2-2--2p3--2-2--2p3---00-22-33-55----|
     A|-----------------------------------------------|
     E|-----------------------------------------------|

4.2  e|-----------------------------------------------|
     B|-----------------------------------------------|
     G|-1-1--1h2--1-1--1h2--1-1--1h2--0h2-1p0-4p2-0h2-|
     D|-2-2--2h3--2-2--2h3--2-2--2h3--0h3-2p0-5p3-0h3-|
     A|-----------------------------------------------|
     E|-----------------------------------------------|


     e|-----------------------------------------------|
     B|-----------------------------------------------|
     G|-1-1--1h2--1-1--1h2--1-1--1h2--1-1--1h2-1-1-1h2|
     D|-2-2--2h3--2-2--2h3--2-2--2h3--2-2--2h3-2-2-2h3|
     A|-----------------------------------------------|
     E|-----------------------------------------------|




4.2.2e|------------------------------|
     B|------------------------------|
     G|------------------------------|
     D|-22-55--33-66--44-77--55-88---|
     A|------------------------------|
     E|------------------------------|

      “Limbs and bowels hang from the trees…”
4.3  e|-----------------------------------------------|
     B|-----------------------------------------------|
     G|-----------------------------------------------|
     D|-----------------------------------------------|
     A|-2-2--2h3--2-2--2h3--2-2--2h3--0h3-2p0-5p3-0h3-|
     E|-----------------------------------------------|


     e|-----------------------------------------------|
     B|-----------------------------------------------|
     G|-----------------------------------------------|
     D|-----------------------------------------------|
     A|-2-2--2h3--2-2--2h3--2-2--2h3---00-22-33-55----|
     E|-----------------------------------------------|


4.4  e|-----------------------------------------------|
     B|-----------------------------------------------|
     G|-----------------------------------------------|
     D|-1-1--1h2--1-1--1h2--1-1--1h2--0h2-1p0-4p2-0h2-|
     A|-2-2--2h3--2-2--2h3--2-2--2h3--0h3-2p0-5p3-0h3-|
     E|-----------------------------------------------|


     e|-----------------------------------|
     B|-----------------------------------|
     G|-----------------------------------|
     D|-1-1--1h2--1-1--1h2--1-1--1h2--1-1-|
     A|-2-2--2h3--2-2--2h3--2-2--2h3--2-2-|
     E|-----------------------------------|

5.0   “Destructor…”
     e|-----------------------------------------------|
     B|-----------------------------------------------|
     G|-5555555555--66-33-56--5555555555--66-33-56----|
     D|-----------------------------------------------|
     A|-----------------------------------------------|
     E|-----------------------------------------------|


5.0.1e|-----------------------------------------------|
     B|-----------------------------------------------|
     G|-----------------------------------------------|
     D|--10XXX-10XXX--8XXX-8XXX--6XXX-6XXX--6XXX-6XXX-|
     A|--10XXX-10XXX--8XXX-8XXX--6XXX-6XXX--4XXX-4XXX-|
     E|--8-XXX-8-XXX--6XXX-6XXX--4XXX-4XXX--3XXX-3XXX-|


                       PLAY FOUR TIMES


   
      Quick fill
     e|-------------|
     B|-------------|
     G|-------------|
     D|-------------|
     A|-------------|
     E|--0-0---0-0--|  
         * *   * *


 3.1 e|-----------------------------------------------|
     B|--------1p0--------------------------1p0-------|
 Cut G|------------------0h2-----1--------------------|
Time D|------2---------------------------2------------|
     A|-----------------------------------------------|
     E|-0-0---------0-0-------0-----0-0---------------|
        * *         * *       *     * *


     e|--------------------------|
     B|--------------------------|
     G|--------------------------|
     D|---------------------3----|
     A|---------------------3----|
     E|----5---5--3--1--0---1----|
               *  *  *  *

                     REPEAT AND PLAY FILL

     “With his wolves ride by his side…”
6.1  e|-----------------------------------------------|
     B|-----------------------------------------------|
     G|-----------------------------------------------|
     D|-2-2--2p3--2-2--2p3--2-2--2p3--0p3-2p0-5p3-0p3-|
     A|-----------------------------------------------|
     E|-----------------------------------------------|


     e|-----------------------------------------------|
     B|-----------------------------------------------|
     G|-----------------------------------------------|
     D|-2-2--2p3--2-2--2p3--2-2--2p3---00-22-33-55----|
     A|-----------------------------------------------|
     E|-----------------------------------------------|

6.2  e|-----------------------------------------------|
     B|-----------------------------------------------|
     G|-1-1--1h2--1-1--1h2--1-1--1h2--0h2-1p0-4p2-0h2-|
     D|-2-2--2h3--2-2--2h3--2-2--2h3--0h3-2p0-5p3-0h3-|
     A|-----------------------------------------------|
     E|-----------------------------------------------|


     e|-----------------------------------------------|
     B|-----------------------------------------------|
     G|-1-1--1h2--1-1--1h2--1-1--1h2--1-1--1h2-1-1-1h2|
     D|-2-2--2h3--2-2--2h3--2-2--2h3--2-2--2h3-2-2-2h3|
     A|-----------------------------------------------|
     E|-----------------------------------------------|
6.2.2e|--------------------------------------|
     B|-55--88--66--99--77--10-10--88--11-11-|
     G|--------------------------------------|
     D|--------------------------------------|
     A|--------------------------------------|
     E|--------------------------------------|

     “Lives were lost and cities burned…”
6.3  e|-----------------------------------------------|
     B|-----------------------------------------------|
     G|-----------------------------------------------|
     D|-----------------------------------------------|
     A|-2-2--2h3--2-2--2h3--2-2--2h3--0h3-2p0-5p3-0h3-|
     E|-----------------------------------------------|


     e|-----------------------------------------------|
     B|-----------------------------------------------|
     G|-----------------------------------------------|
     D|-----------------------------------------------|
     A|-2-2--2h3--2-2--2h3--2-2--2h3---00-22-33-55----|
     E|-----------------------------------------------|


6.4  e|-----------------------------------------------|
     B|-----------------------------------------------|
     G|-----------------------------------------------|
     D|-1-1--1h2--1-1--1h2--1-1--1h2--0h2-1p0-4p2-0h2-|
     A|-2-2--2h3--2-2--2h3--2-2--2h3--0h3-2p0-5p3-0h3-|
     E|-----------------------------------------------|


     e|-----------------------------------|
     B|-----------------------------------|
     G|-----------------------------------|
     D|-1-1--1h2--1-1--1h2--1-1--1h2--1-1-|
     A|-2-2--2h3--2-2--2h3--2-2--2h3--2-2-|
     E|-----------------------------------|


7.0   “Destructor…”
     e|-----------------------------------------------|
     B|-----------------------------------------------|
     G|-5555555555--66-33-56--5555555555--66-33-56----|
     D|-----------------------------------------------|
     A|-----------------------------------------------|
     E|-----------------------------------------------|


7.0.1e|-----------------------------------------------|
     B|-----------------------------------------------|
     G|-----------------------------------------------|
     D|--10XXX-10XXX--8XXX-8XXX--6XXX-6XXX--6XXX-6XXX-|
     A|--10XXX-10XXX--8XXX-8XXX--6XXX-6XXX--4XXX-4XXX-|
     E|--8-XXX-8-XXX--6XXX-6XXX--4XXX-4XXX--3XXX-3XXX-|


                       PLAY FOUR TIMES


      Quick fill 2
     e|---------------------------|
     B|---------------------------|
     G|---------------------------|
     D|---------------12----12----|
     A|---------------12----12----|
     E|--0-0---0-0----10----9-----|  
         * *   * *

      During Bass Solo
8.1  e|-----------------------------------------------|
     B|-----------------------------------------------|
     G|-----------------------------------------------|
     D|-----------------------------------------------|
     A|-2--------------------2------------------------|
     E|-0--0--0--000--0--0---0----0--0--000--000------|
           *  *  ***  *  *        *  *  ***  ***


     e|-----------------------------------------------|
     B|-----------------------------------------------|
     G|-----------------------------------------------|
     D|-----------------------------------------------|
     A|-2--------------------2------------------------|
     E|-0--0--0--000--0--0---0----0--0--000--000------|
           *  *  ***  *  *        *  *  ***  ***


8.1.2e|-----------------------------------------------|
     B|-----------------------------------------------|
     G|-----------------------------------------------|
     D|------------------------7-----9-----10----11---|
     A|-2----------------------7-----9-----10----11---|
     E|-0--0--0--000--0--0-----5-----7-----8-----9----|
           *  *  ***  *  *


   (WORKING ON TABBING THE GUITAR SOLO, FIGURING OUT SWEEPS)



Legend:

h: hammer-on
p: pull-off
/\ : chord switch
///: slide
*: palm-mute
X: mute string



“Destructor” is written by Korupture

Scott Thorpe: Vocals
Spenser Hodge: Guitar
Chris Hansson: Guitar
Brit Strah: Bass Guitar
Justin Rodda: Drums

www.myspace.com/korupturethrash
Tap to rate this tab
# A B C D E F G H I J K L M N O P Q R S T U V W X Y Z