Song name
# A B C D E F G H I J K L M N O P Q R S T U V W X Y Z

Misc Unsigned Bands - Bogoyatoo - Stuff To Feel tab

Intro
----5---5----------------------------------------------|
---5---5-----------------------------------------------|
-8b--6b--7b9r7-5~------4b6-5-4------------4b6----------|
-------------------2-/5-------5/2-2/5~--3----5-3-------|
0-----------------5----------------------5------5/0-0--|
-------------------------------------------------------|

Verse
-4----- X2  -4-4-4x  X2 ------x----------------|
-5-5-5x     -4-4-4x     ------x----------------|
-x-x-xx     -5-5-5x     --6-6-x-5-5-5----------|
-6-6-6x     -x-x-xx     --7-7-x-6-6-6--2-------|
-4-4-4x     -6-6-6x     --7-7-x-6-6-6--2---5---|
-------     -4-4-4x     --5-5-x-4-4-4--0-/7-7~-|

chorus
stuff to feel in my pants
stuff to feel in your pants
lets make a connection,  u take my erection
u say you'll play my trombone?

solo
improvised
Tap to rate this tab
 
# A B C D E F G H I J K L M N O P Q R S T U V W X Y Z