Song name
# A B C D E F G H I J K L M N O P Q R S T U V W X Y Z

Misc Unsigned Bands - Decided - Cheat Death tab

Help us improve GuitareTab! Take a short survey!
Cheat Death-DECIDED guitar tab

Guitar1
D-----------------------------------------------------------|
A-----------------------------------------------------------|
F-----------------------------------------------------------|
C-----------------------------------------------------------|
G-----8-----5----------------------8-----5--------------5*~-|
C-0-0---0-0---8-7-5-0-0-5-0-5*-0-0---0-0---8-7-5-0-0-5-0----|
{Guitar2
{let this note ring below
D----------------------------------------------------------|
A----------------------------------------------------------|
F----------------------------------------------------------|
C-0--------------------------------------------------------|
G-0--------------------------------------------------------|
C-0--------------------------------------------------------|

Both guitars 3 times
D-----------------------------------------------------------|
A-----------------------------------------------------------|
F-----------------------------------------------------------|
C-----------------------------------------------------------|
G-----8-----5----------------------8-----5--------------5*~-|
C-0-0---0-0---8-7-5-0-0-5-0-5*-0-0---0-0---8-7-5-0-0-5-0----|

D----------------------------------------------------------|
A----------------------------------------------------------|
F---------7-----9-----10---------7-----9-----5-------------|
C---------+-----+-----+----------+-----+-----+--Times6-----|
G---------5-----7-----8----------5-----7-----3-------------|
C-000-000---000---000----000-000---000---000---------------|

Guitar1 Alone once,then guitar 2 joins on last 6 notes on the 2nd
D----------------------------------------------------------|
A----------------------------------------------------------|
F----------------------------------------------------------|
C----------------------------------------------------------|
G-7------------7--------7------------7---------------------|
C---8-7-5--8-7---8-7-0----8-7-5--8-7---8-7*~0--------------|
Both Guitars X4
D----------------------------------------------------------|
A----------------------------------------------------------|
F----------------------------------------------------------|
C----------------------------------------------------------|
G-7---------------------7----------------------------------|
C---8-7-5-5555-5555-8-7---8-7-0000-0000-0000---------------|

D----------------------------------------------------------|
A----------------------------------------------------------|
F---------7-----9-----10---------7-----9-----5-------------|
C---------+-----+-----+----------+-----+-----+--Times6-----|
G---------5-----7-----8----------5-----7-----3-------------|
C-000-000---000---000----000-000---000---000---------------|

D-----------------------------------------------------------|
A-----------------------------------------------------------|
F-----------------------------------------------------------|
C-----------------------------------------------------------|
G-----8-----5----------------------8-----5--------------5*~-|
C-0-0---0-0---8-7-5-0-0-5-0-5*-0-0---0-0---8-7-5-0-0-5-0----|

{let this note ring below
D----------------------------------------------------------|
A----------------------------------------------------------|
F----------------------------------------------------------|
C-0--------------------------------------------------------|
G-0--------------------------------------------------------|
C-0--------------------------------------------------------|
						The end
Key
*:Pinch Harmonic
+:Palm Mute
~:Vibrato

Web site:
www.myspace.com/decidedtheband
Related for Decided - Cheat Death tab