Song name
# A B C D E F G H I J K L M N O P Q R S T U V W X Y Z

Misc Unsigned Bands - Rakes Of Kildare tab

Tabbed  and edited by Raymond Basnicki

and questions or comments email me at rayn8481@hotmail.com

(let the low note ring the entire time to give the song a little bit of body)

A fast and verry livley tempo
2/3 timing

          (A)                                                 (C)
E------------------------------------------------------0--2---3------|
B-------------------------------------------0--1--3------------------|
G--2-----2-----------2--2---------2--2-------------------------------|
D---------2-----2-------------2--------------------------------------|
A---------2----------------------------------------------------------|
E--------------------------------------------------------------------|

                               (G)       (D)
E----2(h3)(p2)--0--3--0------------------------------------------------------|
B------------------------------3--0------------------------------------------|
G-------------------------------------0--0-----------------------------------|
D----------------------------------------------------------------------------|
A----------------------------------------------------------------------------|
E----------------------------------------------------------------------------|
          (A)                                                 (C)
E------------------------------------------------------0--2---3------|
B-------------------------------------------0--1--3------------------|
G--2-----2-----------2--2---------2--2-------------------------------|
D---------2-----2-------------2--------------------------------------|
A---------2----------------------------------------------------------|
E--------------------------------------------------------------------|
                             (A)
E--2(h3)(p2)--0-------------------------------------------------------------|
B--------------------3--0--2--0--2------------------------------------------|
G---------------------------2--0--2-----------------------------------------|
D---------------------------------------------------------------------------|
A---------------------------------------------------------------------------|
E---------------------------------------------------------------------------|
          (A)                                                 (C)
E------------------------------------------------------0--2---3------|
B-------------------------------------------0--1--3------------------|
G--2-----2-----------2--2---------2--2-------------------------------|
D---------2-----2-------------2--------------------------------------|
A---------2----------------------------------------------------------|
E--------------------------------------------------------------------|
                               (G)      (D)
E----2(h3)(p2)--0--3--0------------------------------------------------------|
B------------------------------3--0------------------------------------------|
G-------------------------------------0--0-----------------------------------|
D----------------------------------------------------------------------------|
A----------------------------------------------------------------------------|
E----------------------------------------------------------------------------|
          (A)                                                 (C
E------------------------------------------------------0--2---3------|
B-------------------------------------------0--1--3------------------|
G--2-----2-----------2--2---------2--2-------------------------------|
D---------2-----2-------------2--------------------------------------|
A---------2----------------------------------------------------------|
E--------------------------------------------------------------------|
                            (A)
E--2(h3)(p2)--0-------------------------------------------------------------|
B--------------------3--0--2--0--2------------------------------------------|
G---------------------------2--0--2-----------------------------------------|
D---------------------------------------------------------------------------|
A---------------------------------------------------------------------------|
E---------------------------------------------------------------------------|
      (A)                                    (C)
E--5--5-----5--5-----5--5------5--7--5--3-----------------------------------|
B---------5---------5---------5---------------------------------------------|
G---------------------------------------------------------------------------|
D---------------------------------------------------------------------------|
A---------------------------------------------------------------------------|
E---------------------------------------------------------------------------|
                              (G)       (D)
E----2(h3)(p2)--0--3--0------------------------------------------------------|
B------------------------------3--0------------------------------------------|
G-------------------------------------0--0-----------------------------------|
D----------------------------------------------------------------------------|
A----------------------------------------------------------------------------|
E----------------------------------------------------------------------------|
      (A)                                    (C)
E--5--5-----5--5-----5--5------5--7--5--3-----------------------------------|
B---------5---------5---------5---------------------------------------------|
G---------------------------------------------------------------------------|
D---------------------------------------------------------------------------|
A---------------------------------------------------------------------------|
E---------------------------------------------------------------------------|
                            (A)
E--2(h3)(p2)--0-------------------------------------------------------------|
B--------------------3--0--2--0--2------------------------------------------|
G---------------------------2--0--2-----------------------------------------|
D---------------------------------------------------------------------------|
A---------------------------------------------------------------------------|
E---------------------------------------------------------------------------|

      (A)                                    (C)
E--5--5-----5--5-----5--5------5--7--5--3-----------------------------------|
B---------5---------5---------5---------------------------------------------|
G---------------------------------------------------------------------------|
D---------------------------------------------------------------------------|
A---------------------------------------------------------------------------|
E---------------------------------------------------------------------------|
                              (G)       (D)
E----2(h3)(p2)--0--3--0------------------------------------------------------|
B------------------------------3--0------------------------------------------|
G-------------------------------------0--0-----------------------------------|
D----------------------------------------------------------------------------|
A----------------------------------------------------------------------------|
E----------------------------------------------------------------------------|
      (A)                                    (C)
E--5--5-----5--5-----5--5------5--7--5--3-----------------------------------|
B---------5---------5---------5---------------------------------------------|
G---------------------------------------------------------------------------|
D---------------------------------------------------------------------------|
A---------------------------------------------------------------------------|
E---------------------------------------------------------------------------|
                            (A)
E--2(h3)(p2)--0-------------------------------------------------------------|
B--------------------3--0--2--0--2------------------------------------------|
G---------------------------2--0--2-----------------------------------------|
D---------------------------------------------------------------------------|
A---------------------------------------------------------------------------|
E---------------------------------------------------------------------------|

repeat as you please :D

and please and question or comments just email me at Rayn8481@hotmail.com
Tap to rate this tab
# A B C D E F G H I J K L M N O P Q R S T U V W X Y Z