Song name
# A B C D E F G H I J K L M N O P Q R S T U V W X Y Z

Misc Unsigned Bands - The Potbelleez - Trouble Trouble tab

--------------------Trouble Trouble
The Potbelleez
--------------------

Hey guys, Thankyou very much to my uncle who worked out the chords for the song.
These are not the official chords but they are pretty much spot on!


Make sure you tune every string down a tone otherwise it wont sound right.

 F# Minor                   A Major
|-2---2---2---2---2-2--2-2---0---0---0---0---0-0--0-0---|
|-2---2---2---2---2-2--2-2---2---2---2---2---2-2--2-2---|
|-2---2---2---2---2-2--2-2---2---2---2---2---2-2--2-2---|
|-4---4---4---4---4-4--4-4---2---2---2---2---2-2--2-2---|
|-4---4---4---4---4-4--4-4---0---0---0---0---0-0--0-0---|
|-2---2---2---2---2-2--2-2------------------------------|

 E Major                    F Minor(My uncle wasnt quite sure about this one)
|-0---0---0---0---0-0--0-0---1---1---1---1---1-1--1-1---|
|-0---0---0---0---0-0--0-0---1---1---1---1---1-1--1-1---|
|-0---0---0---0---0-0--0-0---1---1---1---1---1-1--1-1---|
|-2---2---2---2---2-2--2-2---3---3---3---3---3-3--3-3---|
|-2---2---2---2---2-2--2-2---3---3---3---3---3-3--3-3---|
|-0---0---0---0---0-0--0-0---1---1---1---1---1-1--1-1---|

That's the whole thing and thankyou again to my uncle for working this tab
out, i hope everyone gets good use out of it! enjoy
Tap to rate this tab
# A B C D E F G H I J K L M N O P Q R S T U V W X Y Z