Song name
# A B C D E F G H I J K L M N O P Q R S T U V W X Y Z

Misc Unsigned Bands - Sol Sigr - Hellheim On Earth tab

Hellheim On Earth

E  :| -------------------------------|-------------------------------|
B  :| -------------------------------|-------------------------------|
G  :|*-------------------------------|-------------------------------|
D  :|*-------------------------------|-------------------------------|
A  :| -------------------------------|-------------------------------|
D  :| 3-3-3-3-3-3-3-3-3-3-3-3-3-3-3-3|2-2-2-2-2-2-2-2-2-2-2-2-2-2-2-2|

E  :-------------------------------|-------------------------------|
B  :-------------------------------|-------------------------------|
G  :-------------------------------|-------------------------------|
D  :-------------------------------|-------------------------------|
A  :-------------------------------|-------------------------------|
D  :0-0-0-0-0-0-0-0-0-0-0-0-0-0-0-0|5-5-5-5-5-5-5-5-5-5-5-5-5-5-5-5|

E  :-------------------------------|----------------|
B  :-------------------------------|----------------|
G  :-------------------------------|----------------|
D  :-------------------------------|----------------|
A  :-------------------------------|----------------|
D  :3-3-3-3-3-3-3-3-3-3-3-3-3-3-3-3|----------------|

E  :-------------------------------|-------------------------------|
B  :-------------------------------|-------------------------------|
G  :-------------------------------|-------------------------------|
D  :-------------------------------|-------------------------------|
A  :3-3-3-3-3-3-3-3-3-3-3-3-3-3-3-3|2-2-2-2-2-2-2-2-2-2-2-2-2-2-2-2|
D  :-------------------------------|-------------------------------|

E  :-------------------------------|-------------------------------|
B  :-------------------------------|-------------------------------|
G  :-------------------------------|-------------------------------|
D  :-------------------------------|-------------------------------|
A  :-------------------------------|-------------------------------|
D  :5-5-5-5-5-5-5-5-5-5-5-5-5-5-5-5|3-3-3-3-3-3-3-3-3-3-3-3-3-3-3-3|

E  :-------------------------------|------------------------------- 4|
B  :-------------------------------|------------------------------- ||
G  :-------------------------------|-------------------------------*||
D  :-------------------------------|-------------------------------*||
A  :-------------------------------|------------------------------- ||
D  :2-2-2-2-2-2-2-2-2-2-2-2-2-2-2-2|0-0-0-0-0-0-0-0-0-0-0-0-0-0-0-0 ||
Tap to rate this tab
# A B C D E F G H I J K L M N O P Q R S T U V W X Y Z