Song name
# A B C D E F G H I J K L M N O P Q R S T U V W X Y Z

Misc Unsigned Bands - All At Random - Nice Place Youve Got Here tab

Title: Nice Place You’ve Got Here
Artist: All At Random
Album: Head of the Crass - This Was The Best That We Could Do...
Year: 2003
Genre: Punk Rock
Tuning: Standard

Riff A:

E------------------------------------|
B------------------------------------|
G-9---7-6-4---9-9----------------(9)-|
D-9---7-6-4---9-9-7-8-9----------(9)-|  x4 – Notes in parentheses
A-7---5-4-2---7-7-7-8-9----------(7)-|       played last time only
E-----------------5-6-7—-------------|

Riff B:

E--------|----------|-----------|
B--------|----------|-----------|
G--REST--|--9-------|--\\\\-----|
D--------|--9-------|--\\\\-----|
A--------|--7-------|--\\\\-----|
E--------|----------|-----------|
                      PICKSCRAPE


Riff C:

E--------------------------------------|------------------------------------|
B--------------------------------------|------------------------------------|
G-99999999----------99999999-----------|99999999----------9-9---------------|
D-99999999-77777777-99999999-99999999--|99999999-77777777-9-9------99999999-|
A-77777777-77777777-77777777-99999999--|77777777-77777777-7-7------99999999-|
E----------55555555----------77777777--|---------55555555----------77777777-|


Riff D:

E-------------------------------------------------------|
B-------------------------------------------------------|
G------------------9999999999999999------------------9--|
D-7777777777777777-9999999999999999-7777777777777777-9--|
A-7777777777777777-7777777777777777-7777777777777777-7--|
E-5555555555555555------------------5555555555555555----|


Riff A 2x, then a break with 2 E5’s thrown in the middle.
After the break, pickslide and then go into Riff C followed by Riff D. After that:


E----------|----------|----------|----------|--------|
B----------|----------|----------|----------|--------|
G--9-------|--9-------|--9-------|--9-------|--\\\\--|
D--9-------|--9-------|--9-------|--9-------|--\\\\--|
A--7-------|--7-------|--7-------|--7-------|--\\\\--|
E----------|----------|----------|----------|--------|


Play Riff D and end on an E5.

Tabbed by Pat York (guitarp_11).

All At Random was a garage band in New Jersey in 2003 or so. To my knowledge they cut 1 
"Head of the Crass - This Was The Best That We Could Do..." They have some really good 
check em out.

http://allatrandom.blogspot.com/
http://www.myspace.com/allatrandom
Tap to rate this tab
 
# A B C D E F G H I J K L M N O P Q R S T U V W X Y Z