Song name
# A B C D E F G H I J K L M N O P Q R S T U V W X Y Z

Misc Unsigned Bands - Mary - Born To Be A Junkie tab

Mary- Born To Be A Junkie (Layne Staley tribute.)

	This is a song I composed for my band, if you notice the intro/outro and verse are 
from the intro of I Can't Remember by Alice in Chains.  Later on i'll upload the bass line.  
you want more information about my band email me at
codyjenkins14@yahoo.com.

*to get the effect use this amp setting.
Drive-1
Bass-1
Mid-3
Treb- 9


INTRO
e|--------------------------------------|
B|--------------------------------------|
G|--------------------------------0-----|
D|---0---0---0---0---0-----0---0---0-0--|
A|--0---0-0---0---0---0---0---0-0---0---|
E|-4---3---3---3---3-----4---2---2------|
	*Play this through out the intro.

VERSE
e|------------|
B|------------|
G|------------|
D|---0---0----|
A|--2---2-2---|
E|-0---3---3--|
	*Play this twice, and on the third time play it like this.
e|----------------|
B|----------------|
G|----------3-----|
D|---2---0---0-0--|
A|--2---2-2---2---|
E|-0---3---3------|

CHORUS
e|--------------------|
B|------X------XX-----|
G|------X------XX-2~--|
D|-5555-X-5555-XX-2~--|
A|-3333-X-3333-XX-2~--|
E|-3333-X-3333-XX-----|

LYRICS/ SONG STRUCTURE

INTRO RIFFAGE (play through out)
Put my sunglasses on...
Drive to Mexico...

Live in the streets...
Make a few friends...

Beg For Money...
Waste time...

PRE-VERSE
yyyeeeaahhh...

VERSE 1 (start the verse at each question)
Can't you feel me?
yeah...
Can't you touch me?
yeah...
Can't you taste me?

CHORUS 1 (chorus riff)
Cookin' it up!
An Shootin' it in!

PRE-VERSE

VERSE 2 (start the verse at each question)
Can you help me?
yeah...
Can you love me?
yeah...
Can you hold me?

CHORUS 2 (chorus riff)
Pulling you up!
And dragging you down!

PRE-VERSE

VERSE 3 (Don't play anything, let the bass do the job.)
I can feel you...
I can touch you...
I can taste you...

CHORUS 3 (chorus riff)
Chewin' you up!
And spittin' you out!
* let the last chord ring for a bit then play the intro riff.

Well, there it is, I hope you enjoy playing it.  I'll be
uploading more guitar and bass tabs from my band soon.
Tap to rate this tab
# A B C D E F G H I J K L M N O P Q R S T U V W X Y Z