Song name
# A B C D E F G H I J K L M N O P Q R S T U V W X Y Z

Misc Unsigned Bands - Revol - Down tab

Help us improve GuitareTab! Take a short survey!
                         Intro
e|---------------------------------------------------------|
b|---------------------------------------------------------|
g|--7---7---7---7---5---5---5---5---3---3---3---3----5---5-|
d|5---5---5---5---3---3---3---3---1---1---1---1----3---3---|
a|---------------------------------------------------------|
E|---------------------------------------------------------|


                     Chorus
e|---------------------------------------------------------|
b|-5p4--2--5p4--0--5p4--2-0-0-0h2-0-0h2--5p4--0------------|
g|---------------------------------------------------------|
d|---------------------------------------------------------|
a|---------------------------------------------------------|
E|---------------------------------------------------------|


                     Fill 1
e|----------------------------------------------------------|
b|----------------------------------------------------------|
g|7--3--5--3--7--5--22222222--7--3--5--7--9--7--5--3--22222-|
d|5--1--3--1--5--3--00000000--5--1--3--5--7--5--3--1--00000-|
a|----------------------------------------------------------|
E|----------------------------------------------------------|

                    Main Riff
e|----------------2------2-------5---3-2----0--2b----------|
b|--3-23---3-2------2------2--3----------2-----------------|
g|4------2-----2------4------------------------------------|
d|---------------------------------------------------------|
a|---------------------------------------------------------|
E|---------------------------------------------------------|

                     Solo
e|---------------------------------------------------------|
b|3h4h55h6h77h8h9-10--1h2h33h4h55h6h7-8--------------------|
g|--------------------------------------3h4h55h6h77h8h9-10-|
d|---------------------------------------------------------|
a|---------------------------------------------------------|
E|---------------------------------------------------------|


                    Solo cont.
e|---------------------------------------------------------|
b|---------------------------------------------------------|
g|1h2h33h4h55h6h7-8--3h4h55h6h77h8h9-10--------------------|
d|---------------------------------------------------------|
a|---------------------------------------------------------|
E|---------------------------------------------------------|

h=hammer-on
p=pull-off

Intro 4x
Chorus 1x
Fill 1 2x
Intro 4x
Main Riff 1x
Chorus 1x
Main Riff 1x
Solo 2x
Related for Revol - Down tab