Song name
# A B C D E F G H I J K L M N O P Q R S T U V W X Y Z

Misc Unsigned Bands - Pure Negative Energy - Pne tab

-------------------------------------------------------------------------------
			     P.N.E. - Pure Negative Energy
-------------------------------------------------------------------------------
Tabbed by:Giorgio

Intro
e|------------------12+------------------------------------------------------|
B|------------------12+------------------------------------------------------|
G|---------------------------------------------------------------------------|
D|-0-0-0-0-0-0-0-0-----------------------------------------------------------|
A|-0-0-0-0-0-0-0-0-----------------------------------------------------------|
D|-0-0-0-0-0-0-0-0-----------------------------------------------------------|



After Intro   
e|---------------------------------------------------------------------------|
B|---------------------------------------------------------------------------|
G|---------------------------------------------------------------------------|
D|---------------------------------------------------------------------------|
A|-003002005007770-----------------------------------------------------------|
D|---------------------------------------------------------------------------|
repeat 4 times


Verse
e|---------------------------------------------------------------------------|
B|---------------------------------------------------------------------------|
G|---------------------------------------------------------------------------|
D|-003002005007770-----------------------------------------------------------|
A|-003002005007770-----------------------------------------------------------|
D|-003002005007770-----------------------------------------------------------|
Repeat 8 Times


Chorus
e|---------------------------------------------------------------------------|
B|---------------------------------------------------------------------------|
G|---------------------------------------------------------------------------|
D|---------------------------------------------------------------------------|
A|-003002005007770-----------------------------------------------------------|
D|---------------------------------------------------------------------------|
Repeat 16 times


Bridge
e|---------------------------------------------------------------------------|
B|---------------------------------------------------------------------------|
G|---------------------------------------------------------------------------|
D|-2-2-2-2-------------------------------------------------------------------|
A|-0-0-0-0-------------------------------------------------------------------|
D|-0-0-0-0-------------------------------------------------------------------|


Guitar Solo
e|---------------------------------------------------------------------------|
B|---------------------------------------------------------------------------|
G|---------------------------------------------------------------------------|
IMPROVISATION!!!!!!!!!!!!!
D|---------------------------------------------------------------------------|
A|---------------------------------------------------------------------------|
E|---------------------------------------------------------------------------|



| /  slide up
| \  slide down
| h  hammer-on
| p  pull-off
| ~  vibrato
| +  harmonic
| x  Mute note
===============================================================================
Tap to rate this tab
# A B C D E F G H I J K L M N O P Q R S T U V W X Y Z