Song name
# A B C D E F G H I J K L M N O P Q R S T U V W X Y Z

Misc Unsigned Bands - Sean Reilly - Simple tab

|--------------|--------------|--------------|  
|-----1-----1--|-----1-----1--|-----1-----1--|   
|--------2-----|--------0-----|--------------|
|--2-----------|--2-----------|--------2-----|
|--------------|--------------|--3-----------|
|--------------|--------------|--------------|
       X4             X4             X4


|--------------|------------|--------------|-------------|
|-----1-----1--|---1-----1--|-----1-----1--|-----1----1--|
|--------------|------------|--------------|-------------|
|--------2-----|------2-----|--------2-----|-------2-----|
|--3-----------|--3---------|--2-----------|--0----------|
|--------------|------------|--------------|-------------|


|--------------|--------------|--------------|--------------|--------------|
|-----1-----1--|--------------|--------------|--------------|--------------|
|--------------|-----2-----2--|-----0-----0--|-----0-----0--|-----0-----0--|
|--------2-----|--------------|--------------|--------------|--------------|
|--3-----------|--------0-----|--------0-----|--------0-----|--------0-----|
|--------------|--2-----------|--3-----------|--2-----------|--1-----------|
      X4              X4             X2             X2             X3
Tap to rate this tab
# A B C D E F G H I J K L M N O P Q R S T U V W X Y Z