Song name
# A B C D E F G H I J K L M N O P Q R S T U V W X Y Z

Misc Unsigned Bands - Revol - Bridge Of Salvation tab



                           Intro
e|---------------------------------------------------------|
b|---------------------------------------------------------|
g|---------------------------------------------------------|
d|---------------------------------------------------------|
a|------3---5---7---9---7---5---3---0----------------------|
E|0-0-0---3---5---7---9---7---5---3---0--------------------|

                           Chorus
e|---------------------------------------------------------|
b|---------------------------------------------------------|
g|---------------------------------------------------------|
d|----2------3------2------0------2------3------0----2-0---|
a|--3------3------3------2------3------3------2-------3-0--|
E|0------0------0------0------0------0------0------0-----0-|

                           Main Riff
e|----------------------------------------------------------|
b|----------------------------------------------------------|
g|----------------------------------------------------------|
d|7--7-7--7-7--5--5-5--5-5--3--3-3--3-3-5-7--7--5--3--7-5-7-|
a|7--7-7--7-7--5--5-5--5-5--3--3-3--3-3-5-7--7--5--3--7-5-7-|
E|5--5-5--5-5--3--3-3--3-3--1--1-1--1-1-3-5--5--3--1--5-3-5-|

                           Bridge
e|---------------------------------------------------------|
b|---------------------------------------------------------|
g|---------------------------------------------------------|
d|---------------------------------------------------------|
a|3-2---2-4-2---2-5-2---2-4-2---2-3-2----------------------|
E|----3-------3-------3-------3-------3--------------------|


                           Solo
e|---------------------------------------------------------|
b|2-1----3-2-----4-3----4-5-4-0-5-4-0-2b-------------------|
g|----0-------0------0-------------------------------------|
d|---------------------------------------------------------|
a|---------------------------------------------------------|
E|---------------------------------------------------------|


intro 3x
chorus 4x
main riff 2x
chorus 4x
bridge 3x
chorus 2x
solo 1x
Tap to rate this tab
 
# A B C D E F G H I J K L M N O P Q R S T U V W X Y Z