Song name
# A B C D E F G H I J K L M N O P Q R S T U V W X Y Z

Misc Unsigned Bands - N Powlesland - Bad Jack tab

Standard-EAGBe tuning...
My first tab :D
easyer than it looks, play it slow and build up to about 110bpm (Y)
i don't really have any dynamics for it but most of the notes are pretty short so don't 
them ring too long this is supposed to be a punchy jazz tune.

.=staccato(very short/stopped)
^=string bend
p=pull off...[duh]

e|----------------------------------------|
B|--------------------------------1-------|
G|----------------------------0----- 2----|
D|----0-1-2---0-1-2----0-1-2----2---------|
A|-0-3-----003------0-3----------------00-|
E|----------------------------------------|

e|-------------------------------------------------0--------|
B|-------------------------------1------1-2-3-----3-1-0-----|
G|---------------------------0-----2--2-----------------2---|
D|----0-1-2---0-1-2---0-1-2----2--------------0-0-----------|
A|-0-3-----003-----0-3------------------------------------0-|
E|----------------------------------------------------------|

e|-------------0------------3-3---3-3---3-3---3-3---3--3--5-|
B|--1-2-3-----3-1-----3-3-3-3-3---3-3---3-3---3-3---3--3--5-|
G|-2--------------2-----------------------------------------|
D|--------0-0-----------------------------------------------|
A|------------------0---------------------------------------|
E|------------------------------0-----0-----0-----0---------|

e|-----------------------------------|
B|----------------------------1------|
G|-------------------------0----2----|
D|--0-1-2---0-1-2----0-1-2--2--------|
A|-3-----003------0-3-------------00-|
E|-----------------------------------|

e|-----------------------------------------------------------------------|
B|-----------------------------------------------------------------------|
G|---------------------0-0---0-0---0-0---0-0-0.-0.-3---------------------|
D|----0-1-2----0-1-2---0-0---0-0---0-0---0-0-0.-0.-3-----0-1-2-2-0-------|
A|-0-3------003------------------------------------0---3-----------3-0---|
E|-------------------0-----0-----0-----0---------------------------------|
                           Also-optional ending from star----------------|  *

e|------|
B|------|
G|------|
D|------|   i.e just bend the string on fret 3 then release to open string.
A|-3^p0-|
E|------|

Enjoy (:
Tap to rate this tab
# A B C D E F G H I J K L M N O P Q R S T U V W X Y Z