Song name
# A B C D E F G H I J K L M N O P Q R S T U V W X Y Z

Misc Unsigned Bands - The Konks - 29 Fingers tab

Band:The Konks
Song:29 Fingers
Album:The Konks

This the first tab I've made so please comment if you can.
I've only got some of the song, it might take me a while to tab the solo


Intro x2
------[---------------------------------------------------------]
------[---------------------------------------------------------]
------[------------7--7-7-7-9--9--------------------------------]
------[-7-7-10-7-7-5--5-5-5-7--7-10-7--7--7-7-7--5--7--7-7-7-7-7]
-0-3-0[-5-5-8--5-5---------------8--5--5--5-5-5--3--5--5-5-7-5-5]
------[----------------------------------------------------5-8-5]

Verse A x2
[---------------------------------------------------------]
[---------------------------------------------------------]
[--------------7--7-7-7-7-7-------------------------------]
[-7--7-7-7-7-7-5--5-5-5-5-5-5-7-7-7--7-7-7-5-7-7-7--7-7-7-]
[-5--5-5-5-5-5--------------3-5-5-5--5-5-5-3-5-5-5--5-5-5-]
[---------------------------------------------------------]

Verse B
[---------------------------------------------------------]
[---------------------------------------------------------]
[-7--7-7-7-7-7-9--9-9-9-9-9-------------------------------]
[-5--5-5-5-5-5-7--7-7-7-7-7-5-7-7-7--7-7-7-5-7-7-7--7-7-7-]
[---------------------------3-5-5-5--5-5-5-3-5-5-5--5-5-5-]
[---------------------------------------------------------]

Play Intro Again

Then Play Verse A twice followed by Verse B once, then

Chorus x2 On second time wait before going up a string
[----------------------------------------------------------]
[----------------------------------------------------------]
[-7--7-7-7-7-7--5--5-5-5-5-5-------------------------------]
[-5--5-5-5-5-5--3--3-3-3-3-3-5-7-7-7--7-7-7-5-7-7-7--7-7-7-]
[----------------------------3-5-5-5--5-5-5-3-5-5-5--5-5-5-]
[----------------------------------------------------------]


Play the Intro twice then the solo comes next, and I havent been able to tab the solo 
yet.

Then play the Chorus again twice,

And after the Chorus repeat Verse A four times then Verse B once, but in stead of 
the first two chords in Verse A, only play them once and slide down.

Then play the Chorus four times, and the little bit at the end is pretty easy to figure out.
[----------------------------------------------------------]
[----------------------------------------------------------]
[-7--7-7-7-7-7--5--5-5-5-5-5-------------------------------]
[-5--5-5-5-5-5--3--3-3-3-3-3-5-7-7-7--7-7-7-5-7-7-7--7-7-7-]
[----------------------------3-5-5-5--5-5-5-3-5-5-5--5-5-5-]
[----------------------------------------------------------]


Thanks, Please comment!
Tap to rate this tab
 
# A B C D E F G H I J K L M N O P Q R S T U V W X Y Z