Song name
# A B C D E F G H I J K L M N O P Q R S T U V W X Y Z

Misc Unsigned Bands - Revol - Up In Flames tab



                          Intro
e|------------------------------------------------------------|
b|5h7h9-5h7h10-5h7h9-5h7h10-5h7h9-5h7h10-5h7h9-5h7h10-5h7h9-5-|
g|------------------------------------------------------------|
d|------------------------------------------------------------|
a|------------------------------------------------------------|
E|------------------------------------------------------------|

                             Chorus
e|-----------------------------------------------------------|
b|-----------------------------------------------------------|
g|------0---------7---------0---------0-------0--------0-----|
d|----9---------7---------9---------7-------9--------7-------|
a|--7---------7---------7---------7-------7--------7---------|
E|0---------0---------0---------0-------0--------0-----------|

                           Main Riff
e|0---------------------0---------------------0--------------|
b|0---1--------------1--0--1---------------1--0--1-----------|
g|1-----3-----------3---1----3-----------3----1----3---------|
d|2-------2-------2-----2------2-------2------2------2-------|
a|3---------3---3-------3--------3---3--------3--------3-----|
E|3-----------1---------3----------1----------3----------1-0-|

                          Fill 1
e|-----------------------------------------------------------|
b|-----------------------------------------------------------|
g|--------------0---------------------------0----------------|
d|---------2-3--5--3-2-----------------2-3--5--3-2-----------|
a|-----2-3------5------3-2---------2-3------5------3-2-------|
E|-2-3----------5----------3-2-2-3----------5----------3-2---|


                       Fill 2
e|-----------------------------------------------------------|
b|3-------4-------5-------6-------7-------8--------9---------|
g|--4---4---5---5---6---6---7---7---8---8---9----9---7-------|
d|----5-------6-------7-------8-------9-------10-------5-----|
a|-------------------------------------------------------3---|
E|---------------------------------------------------------0-|


h=hammer-on
p=pull-off

intro 1x
chorus 2x
main riff 4x
fill 1 4x
chorus 2x
fill 2 4x
Tap to rate this tab
 
# A B C D E F G H I J K L M N O P Q R S T U V W X Y Z