Song name
# A B C D E F G H I J K L M N O P Q R S T U V W X Y Z

Misc Unsigned Bands - Lliam Morrice - Is Love A Word tab

----------------------------------------------------------------------------
			     lliam morrice - is love a word
----------------------------------------------------------------------------
Tabbed by:lil-dim
Email:lliammorrice@yahoo.co.uk

Tuning:Standard

Verse:x4
e|--------------------------------------------------------------------------|
B|--------------------------------------------------------------------------|
G|-----------1-------4------4------2----------------------------------------|
D|-----------2-x5----4-x5---2-x5---2-x5-------------------------------------|
A|-----------2-------2------4------0----------------------------------------|
E|--------------------------------------------------------------------------|

Chorus:x2
e|---------------------------------------------------------------------------|
B|---------------------------------------------------------------------------|
G|-----------7------8-------6------------------------------------------------|
D|-----------9-x5---9-x5----7-x10--------------------------------------------|
A|-----------9------6-------7------------------------------------------------|
E|--------------------------5------------------------------------------------|

Bridge:x2
e|---------------------------------------------------------------------------|
B|---------------------------------------------------------------------------|
G|------------------6------6------4------------------------------------------|
D|-----------2------6-x4---4-x4---4-x4---------------------------------------|
A|-----------4-x4---4------6------2------------------------------------------|
E|-----------4---------------------------------------------------------------|

Order: Verse
       Chorus
       verse
       Chorus
       Bridge
       Chorus
Tap to rate this tab
 
# A B C D E F G H I J K L M N O P Q R S T U V W X Y Z