Song name
# A B C D E F G H I J K L M N O P Q R S T U V W X Y Z

Misc Unsigned Bands - I Laugh At The Devil - The River tab

~ = Vibrato
\ = Slide down
/ = Slide up
^ = bend String
. = palm Mute
> = Let Ring
p = Pull-Off

Tuned 1/2 Step Flat (Eb Ab Db Gb Bb Eb)


INTRO

Guitar 1
Eb|---------------------------------------------------------------------|
Bb|---------------------------------------------------------------------|
Gb|-4444444455555555444444442222222244444444555555557777777777777777-9\-|
Db|-2222222222222222222222222222222222222222222222225555555555555555-7\-|
Ab|---------------------------------------------------------------------|
Eb|---------------------------------------------------------------------|

Guitar 2
Eb|----------|----------|----------|----------|     |-----|
Bb|----------|----------|----------|----------| x2  |-----|
Gb|-44444444-|-55555555-|----------|----------|     |--9\-| 
Db|-44444444-|-55555555-|-55555555-|-77777777-|     |--9\-|
Ab|-22222222-|-33333333-|-55555555-|-77777777-|     |--7\-|
Eb|----------|----------|-33333333-|-55555555-|     |-----|


VERSE

    .. .. . .. .. .    . .   . ..  ... .. .
Eb|------------------|-----------------------| 
Bb|------------------|-----------------------| x3
Gb|------------------|-----------------------| 
Db|---9--9-9--9--9-9-|-----12----12---9--9-9-|
Ab|-77-77-7-77-77-7--|-1010--1099--977-77-7--|
Eb|------------------|-----------------------|
    .. .. . .. .. .    . .   . ..  ... .. .
 
    .. .. . .. .. . 
Eb|------------------|------------------|----------| 
Bb|------------------|------------------|----------| 
Gb|------------------|-1212121211111111-|-99999999-| 
Db|---9--9-9--9--9-9-|-x-x-x-x-x-x-x-x--|-xxxxxxxx-|
Ab|-77-77-7-77-77-7--|-101010109-9-9-9--|-77777777-|
Eb|------------------|------------------|----------|
    .. .. . .. .. . 


PRE CHORUS
    .. .. . .. .. .    .. .. . .. .. .
Eb|------------------|------------------| 
Bb|------------------|------------------| 
Gb|---7--7-7--7--7-7-|---9--9-9--9--9-9-|
Db|-55-55-5-55-55-5--|-77-77-7-77-77-7--|
Ab|------------------|------------------|
Eb|------------------|------------------|
    .. .. . .. .. .    .. .. . .. .. .

Guitar 1
Eb|----------|----------|----------|----------|
Bb|----------|----------|----------|----------|   
Gb|----------|----------|----------|----------|     
Db|-55555555-|-55555555-|-77777777-|-77777777-|
Ab|-55555555-|-55555555-|-77777777-|-77777777-|
Eb|-33333333-|-33333333-|-55555555-|-55555555-|

A Second Guitar can Slightly Be heard
which plays:

Eb|------12----|------12---|-----10-----|-----10---|
Bb|-8-10----10-|-8-10---10-|-5-8----8---|-5-8----8-|  x2
Gb|------------|-----------|------------|----------| 
Db|------------|-----------|------------|----------|
Ab|------------|-----------|------------|----------|
Eb|------------|-----------|------------|----------|


CHORUS

Guitar 1
Eb|----------|----------|----------|----------|
Bb|----------|----------|----------|----------| x4
Gb|----------|-55555555-|----------|----------| 
Db|-22222222-|-55555555-|-55555555-|-77777777-|
Ab|-22222222-|-33333333-|-55555555-|-77777777-|
Eb|-00000000-|----------|-33333333-|-55555555-|

Guitar 2
Eb|------12----|------12----|-----10---|-----7---|
Bb|-8-10----10-|-8-10----10-|-5-8----8-|-3-5---5-| x4
Gb|------------|------------|----------|---------| 
Db|------------|------------|----------|---------|
Ab|------------|------------|----------|---------|
Eb|------------|------------|----------|---------|


* Then Repeat the VERSE once then the PRE CHORUS + CHORUS twice,
  followed by the SOLO, which ends the song.


SOLO (Guitar 2 plays Chorus Riff for backing)

Guitar 1
Eb|-------------------------------|
Bb|-----------/21~----------------|   
Gb|-7>--------/19~----------------|     
Db|-5>----------------------------|
Ab|-------------------------------|
Eb|-------------------------------|

Eb|-----------------------------------------------------|
Bb|-------------------15--15-13-------------------------|   
Gb|-12-12-12-12p10-12--------------14\13/14\13-16-14\13-|     
Db|-----------------------------------------------------|
Ab|-----------------------------------------------------|
Eb|-----------------------------------------------------|

Eb|-------------------------------------------------------------|
Bb|-------------------15--15-13----19---------------------------|   
Gb|-12-12-12-12p10-12-----------------17-16-17-18-^19-^19-17----|     
Db|----------------------------------------------------------19-|
Ab|-------------------------------------------------------------|
Eb|-------------------------------------------------------------|

Eb|-------------------------------------------------------------|
Bb|----------------------------18--18--18--18--22--22-^22-19----|   
Gb|-17-15-14-------------14--14--14--14--14--19--19---------19~-|    
Db|----------15-16-14-15----------------------------------------|
Ab|-------------------------------------------------------------|
Eb|-------------------------------------------------------------|

Eb|------------------------------^18--14-15-14------------------|
Bb|-------------------------------------------15--14-15-14-17~\-|   
Gb|-^20-^20-^20-20-18-^22-----------------------14--------------|     
Db|------------------------19-19--------------------------------|
Ab|-------------------------------------------------------------|
Eb|-------------------------------------------------------------|

Tap to rate this tab
# A B C D E F G H I J K L M N O P Q R S T U V W X Y Z