Song name
# A B C D E F G H I J K L M N O P Q R S T U V W X Y Z

Misc Unsigned Bands - Tony Mejia - Rainy Day On The Porch tab

E|---------------------------------|
B|-0h1-----1-----3-----1---0h1-----|
G|-----0-----0-----0-----0-----0---|
D|-------2-----2-----2-----------2-|
A|-3-------------------------------|
E|---------------------------------|

E|---------------------------------|
B|-0h1-----1-----3-----1---0h1-----|
G|-----2-----2-----2-----2-----2---|
D|-------2-----2-----2-----------2-|
A|-0-------------------------------|
E|---------------------------------|

E|---------------------------------|
B|-0h1-----1-----3-----1---0h1-----|
G|-----2-----2-----2-----2-----2---|
D|-3-----3-----3-----3-----------3-|
A|---------------------------------|
E|---------------------------------|

E|---------------------------------|
B|-3-----3-----3---5-----3-----3---|
G|---4-----4-----4---4-----4-----4-|
D|-5---5-----5---------5-----5-----|
A|---------------------------------|
E|---------------------------------| ...Repeat.

Add to it if you can
Tap to rate this tab
# A B C D E F G H I J K L M N O P Q R S T U V W X Y Z