Song name
# A B C D E F G H I J K L M N O P Q R S T U V W X Y Z

Misc Unsigned Bands - Encounters In Counting - Her tab

Help us improve GuitareTab! Take a short survey!
----------------------------------------------------------------------------
			     Her - Encounters In Counting
----------------------------------------------------------------------------

Tabbed by: CAMERON JEROME DREW

Email:Burrito93@gmail.com

Tuning:Standard, as always

Band is unsigned and unrecognized as of the moment.

Lauren, this is your song.
You really should know by now, i love you from the bottom of my heart <3.
Stay beautiful.

########################################################################

VERSE:

Play this about 4 times per verse

e|----------------------------------------------------------------------|
B|----------------------------------------------------------------------|
G|----------------------------------------------------------------------|
D|---------12---------------------------------7-7-----------------------|
A|------12----12-----------9---9--------7-7-7---------5-5-5-5-5---------|
E|-10~~~---------10-10----7--7--7---5~~~------------3-------------------|
                     .           .               .            .

e|------------------------------------------------------------------------|
B|------------------------------------------------------------------------|
G|------------------------------------------------------------------------|
D|---------12-------------------------------7-7-----------5-----5---------|
A|------12----12------------9---9---------7-----7-------5-----5-----------|
E|-10~~~---------10-10----7---7---7---5~~~--------7---3-----3-------------|
                     .            .                .             .

CHORUS: (in the same rythym count as the verse)

At the end of the first go-round with this riff, play the next three times using the 
up as the first chord.

e|------------------------------------------------------------------|
B|------------------------------------------------------------------|
G|------------------------------------------------------------------|
D|--12~~--12-12--12----9--9-9-----7~~--7-7--7----5-5-4-4-2-2-/------|(x4)
A|--12~~--12-12--12----9--9-9-----7~~--7-7--7----5-5-4-4-2-2-/------|
E|--10~~--10-10--10----7--7-7-----5~~--5-5--7----3-3-2-2-0-0-/------|
                  .    .    .               .

Intro/Solo/Bridge will be submitten as soon as they are finished being composed.

========================================================================
Alright administrators, this tab may not be very official or on a record yet, but please 
it for the sake of the artist.
=========================================================================

KEY:

| .  Palm mute
| /  slide up
| \  slide down
| h  hammer-on
| p  pull-off
| ~  let ring
| +  harmonic
| x  Mute note
============================================================================
Related for Encounters In Counting - Her tab