Song name
# A B C D E F G H I J K L M N O P Q R S T U V W X Y Z

Misc Unsigned Bands - Tainted - Beneath The Veneer tab

Now i'm just posting this because I was just listening to the song an I was looking for 
tabs but there were none so this is wat I came up with, probly not right. this is my 1st 
an yeah enjoy.

Intro
e |----------------------------------------------|-------------------|
B |----------------------------------------------|-------------------|
G |----------------------------------------------|-------------------|
D |--4------------2*---4-------------------------|--4------------2*--|
A |--2---------2h3-----2----------3h5-3-2-3-2-0--|--2---------2h3----|
E |-----0-0-0--------------0-0-0-----------------|-----0-0-0---------|
 P.M    . . .              . . .  . . . . . . .        . . .

e |------------------------|
B |------------------------|
G |------------------------|
D |--4---------2*----------|
A |--2-----------3*--------|
E |-----0-0-0--------------|
        . . .

Yea thats pretty much what I came up with
i dont know the right tuning, but it sounds alright in standard
Tap to rate this tab
# A B C D E F G H I J K L M N O P Q R S T U V W X Y Z