Song name
# A B C D E F G H I J K L M N O P Q R S T U V W X Y Z

Misc Unsigned Bands - Steven Widener - My Angel tab

0--------------------------------------------------0--------------------------|
1---1-----0--1-----3--------1------0---1-----------1---1-----0--1-----3-------|
2------2--------2-----2---------2---------0--------0------0--------0-----0----|
2------------------------2--------------------2----2------------------------2-|
0--------------------------------------------------3--------------------------|
0--------------------------------------------------0--------------------------|

----------------0--------------------------------------------------------------|
1-------0h1p0---1--1-----0--1-----3--------1-----0--1-------------1--------1---|
----0-----------2-----2--------2-----2--------2--------0------------0--------0-|
----------------2-----------------------2-----------------2----2---------------|
----------------0--------------------------------------------3-----------2-----|
----------------0------------------------------------------------------3-------|

Repeat Strumming 4x
0---------0-----00----0-0---0-0-0-0-0---0----00----0-0-0-0-0-0-0--0---------0-|
1---------1-----11----1-0h1-3-1-1-1-0h1-1----11----1-3-3-3-3-3-3--1---------1-|
2---------2-----22----2-2---2-2-2-2-2---2----22----2-2-2-2-2-2-2--0---------0-|
2---------2-----22----2-2---2-2-2-2-2---2----22----2-2-2-2-2-2-2--2---------2-|
0---------0-----00----0-0---0-0-0-0-0---0----00----0-0-0-0-0-0-0--3---------3-|
0---------0-----00----0-0---0-0-0-0-0---0----00----0-0-0-0-0-0-0--0---------0-|

----00----0-0---0-0-0-0-0---0----00----0-0-0-0-0-0-0--0-----------------------|
----11----1-0h1-3-1-1-1-0h1-1----11----1-3-3-3-3-3-3--1------1---0h1--1-----1-|
----00----0-0---0-0-0-0-0---0----00----0-0-0-0-0-0-0--2----2---2--------2-----|
----22----2-2---2-2-2-2-2---2----22----2-2-2-2-2-2-2--2--2----------------2---|
----33----3-3---3-3-3-3-3---3----33----3-3-3-3-3-3-3--0-----------------------|
----00----0-0---0-0-0-0-0---0----00----0-0-0-0-0-0-0--0-----------------------|

------------------------------------------0-----------------------------------|
-------3------3------3----3----1---0h1--1-1------1---0h1--1--------1--------3-|
--2------2------2------2----2----2--------0----0---0---------2--------2-------|
----2------2------2-----------------------2--2------------------2--------2----|
------------------------------------------3-----------------------------------|
------------------------------------------0-----------------------------------|

-----------------------------------------0---0------0--0-0-0-0--0---0--0---0-|
-------3--------3-----3----1-----0h1--1--0h1-1--0h1-1--1-3-3-1--0h1-1--0h1-1-|
--0-------0--------0----0-----0----------------------------------------------|
-----2-------2---------------------------------------------------------------|
-----------------------------------------------------------------------------|
-----------------------------------------------------------------------------|

-0-0-0-0--0------------------------------------------0-----------------------|
-1-3-3-1--1--1---0--1---3--------1-----0--1----------1--1---0--1---3-----1---|
----------2----2------2----2--------2--------0-------0----2------0---0-----0-|
----------2-------------------2-----------------2----2-----------------2-----|
----------0------------------------------------------3-----------------------|
----------0------------------------------------------0-----------------------|

        |(Play with Distortion)  Guitar 2      (Guitar 1 repeats intro)|
--------0----------------------3--------0-----------------------7-----------|
-0h1p0--1--1---0--1---1/3--3-5---5-3/5--1--1---0--1-----1/9-7-9---9---2-----|
--------2----2------2-------------------0----0-------0----------------2-----|
--------2-------------------------------2-----------------------------2-----|
--------0-------------------------------3-----------------------------2-----|
--------0-------------------------------0-----------------------------------|

Still Guitar 2 (With Distortion)
-0-------------0---0-|
-1------2------1---1-|
-2------2------2---0-|
-2------2------2---2-|
-0------2------0---3-|
-0-------------0---0-|

End (Guitars 1 and 2)

------------------------------------------------------------------------------|
----1-----0--1-----3--------1------0---1---------------1-----0--1-----3-------|
--2----2--------2-----2---------2---------0----------0----0--------0-----0----|
2------------------------2-------------------2-----2------------------------2-|
------------------------------------------------------------------------------|
------------------------------------------------------------------------------|

----------------0--------------------------------------------------------------|
1-------0h1p0---1--1-----0--1-----3--------1-----0--1-------------1--------1---|
----0-----------2-----2--------2-----2--------2--------0------------0--------0-|
----------------2-----------------------2-----------------2----2---------------|
----------------0--------------------------------------------3-----------2-----|
----------------0------------------------------------------------------3-------|

-0
-1
-2
-2
-0
-0

Well this is it. I wrote this song for my girlfriend. She seems to like it. I will put
lyrics on here soon enough so until then just enjoy learning how to play it. And where
1 repeats the intro, guitar 2 is playing the chords with distortion. Look for the "|" on 
of the tab.
Tap to rate this tab
# A B C D E F G H I J K L M N O P Q R S T U V W X Y Z