Song name
# A B C D E F G H I J K L M N O P Q R S T U V W X Y Z

Misc Unsigned Bands - The New Year - Disease tab

Highlighted       Show chord diagrams
-------------------------------------------------------------------------------
			     DISEASE - The new year
-------------------------------------------------------------------------------
Tabbed by: asno
Email: asnoslax@hotmail.com

Tuning: Standard


Figure1
e|-----------------|
B|---0-------------|
G|-------2---0---3-|
D|-4---1---2---2---|x4  then  D|--4-----1--
A|-----------------|
E|-----------------|
It was summer
And a hundred and six degrees
The air was hot water
There was no motion in the trees
And in this weather only two things grow
Or three
Frustration
Hot tempers
And disease

0:46
      Em      A
That menace 
     G          D
has found us again
Em		     A
   It's not just the old 
G		 D
   giving up and in
      Em      A        G       D
Don't let it take your breath away


1:15 Figure1 x3
We're all feeling ill at ease
Since we were swinging through the trees
And everyone knows that no one will ever know the true source of
disease

1:52 Solo + chords (2 guitars needed here)
   Em  A  G      D 
e|----------------------------|
B|-8-5----3--3/7-7------------|

   Em  A      G         D
e|------------7-7-7-5-3-2-----|
B|-8-5----5-------------------|
  
   Em  A     G      D
e|----------------------------|
B|-8-5---5\3-3--3/7-7---------|


2:18 Figure2
D|-0-2------
A|-----0-2--

Bm		       D
    I don't know about God
        A	       G
But I'm sure there's a devil

Figure2

Bm		       D
    You see it in the eyes
         A
Of every man and woman who's ill
2:37 Figure3
D|-0-2--4-5-

Bm			D	      A
    I don't know about heaven or our souls
         G			F# 	 B
But our bodies are all going to hell

NOW WITH SOLO TOO! 2:52 (2 guitars needed here)
     Em    A	   G	       D
And disease... has found us again
Em		      A
    In a few healthy years
G			 D
   Did we think it would end
      Em      A        G       D
Don't let it take your breath away 


| /  slide up
| \  slide down
| h  hammer-on
| p  pull-off
| ~  vibrato
| +  harmonic
| x  Mute note
===============================================================================
Tap to rate this tab
# A B C D E F G H I J K L M N O P Q R S T U V W X Y Z