Song name
# A B C D E F G H I J K L M N O P Q R S T U V W X Y Z

Misc Unsigned Bands - Tetrarch - Tyranny Of Saints tab

Hey guys. This is my first tab ever. its not 100% but its fairly accurate. rate and tell 
what you think. Also, i cant figure out the weird part in the intro or the solo so it 
only be the rhythm part to this song.

Tuning: Drop Db (Eb,Ab,Gb,Db,Ab,Db)

Intro:

Db--7--
Ab--5-- (x8)
Db--7--(i play this during the rhythm part to the intro)

Fill:

Eb------------------------------|
Ab------------------------------|
Gb------------------------------|
Db-7---7------------------------|
Ab--78--78-5h7p5----------------|
Db------------------------------|
    ..  ..

Verse:
Eb-------------------------------------|
Ab-------------------------------------|
Gb---------------10-9---7--5\4-4/5-----|
Db-6-7-----------8--7---5--3\2-2/3-----|
Ab-4-5--------87-----------------------|
Db----00000000--0-----00---------------|
      ........  .     ..
Pre-Chorus:
Eb-----------------------------------------------|
Ab-----------------------------------------------|
Gb-----------------------------------------------|
Db-----------------------------------------------|
Ab------------8-7-8h7p8-4----------4-5-5h7p5-----|
Db0-0000-0000-------------0000-0000--------------|
  . .... ....             .... ....
Chorus:
Eb-----------------------------------------|
Ab-----------------------------------------|
Gb-----------------------------------------|
Db-----------7-----------------------------|
Ab----8-8p7----8-7-7h8p7-------------------|
Db0-0-------0------------------------------|
    .       .  . .
Eb-----------------------------------------|
Ab-----------------------------------------|
Gb-----------------------------------------|
Db-----------7-----------------------------|
Ab----8-8p7----8-7-7h8p7-------------------|
Db8-8-------8------------------------------|
    .       .  . .
Eb------------------------------------------|
Ab------------------------------------------|
Gb------------------------------------------|
Db--------------7---------------------------|
Ab------8-8p7-----8-7-7h8p7-----------------|
Db10-10-------10----------------------------|
      .        .  . .
Eb-------------------------------------|
Ab-------------------------------------|
Gb-------------------------------------|
Db-----------7-------------------------|
Ab----8-8p7----8-7-5-------------------|
Db8-8-------8--------8-7-5-3-----------|
    .       .        . . . .
Bridge:
Eb--------------------------------------------------------|
Ab--------------------------------------------------------|
Gb--------------------------------------------------------|
Db0---------------0---------------------------------------|
Ab0-------------5-0---------------0-----------------------|
Db0-00000000-3h6--0-000000-3p0-00---5-3-------------------|
    ........        ......     ..   . .
Solo Rhythm:
Eb------------------------------------------|
Ab------------------------------------------|
Gb------------------------------------------|
Db------------------------------------------|
Ab----8-8p7---------------------------------|
Db0-0------0000000000-----------------------|
    .      ..........
Eb------------------------------------------|
Ab------------------------------------------|
Gb------------------------------------------|
Db------------------------------------------|
Ab----8-8p7---------------------------------|
Db8-8-------0000000000----------------------|
    .       ..........
Eb------------------------------------------|
Ab------------------------------------------|
Gb------------------------------------------|
Db------------------------------------------|
Ab------8-8p7-------------------------------|
Db10-10-------0000000000--------------------|
      .       ..........
Eb------------------------------------------|
Ab------------------------------------------|
Gb------------------------------------------|
Db------------------------------------------|
Ab----8-8p7---------------------------------|
Db8-8-------0000000000----------------------|
    .       ..........

Pre-Chorus(heavier):
Eb-------------------------------------------------------|
Ab-------------------------------------------------------|
Gb-------------------------------------------------------|
Db-----------10---9---10-6----------6---7---9-7----------|
Ab-----------8----7---8--4----------4---5---7-5----------|
Db0-000-000----00---00------000-000--00--00--------------|


That's all i have so far. You can figure out the rhythm theyre played in. But the order 
the song is:

Intro
Fill
Verse
Pre-Chorus
Chorus
Verse
Pre-Chorus
Chorus
Bridge
Solo Rhythm
Bridge
Pre-Chorus(Heavier)
Chorus
Tap to rate this tab
# A B C D E F G H I J K L M N O P Q R S T U V W X Y Z