Song name
# A B C D E F G H I J K L M N O P Q R S T U V W X Y Z

Misc Unsigned Bands - Spiraling Nowhere - The Beautiful Transition tab

The Beautiful Transition
Written by Daniel Kim



	Intro 
      (Lead Guitar) 
E|--0--0--0/--|--0--0--0/--|--0--0--0\--|--0--0--0/--|--0--0--0---|- 	KEY: (/)-Slide down
B|--4--4--4/--|--5--5--5/--|--12-12-12\-|--7--7--7/--|--9--9--9---|-	(\)-Slide up
G|------------|------------|------------|------------|------------|- 	(h)-Hammer on
D|------------|------------|------------|------------|------------|- 	(~)-Let ring
A|------------|------------|------------|------------|------------|-	(x)-muted strum
E|------------|------------|------------|------------|------------|-
        
E|--0--0--0/--|--0--0--0/--|--0--0--0\--|--0--0--0/--|--0--0--0---|- 
B|--4--4--4/--|--5--5--5/--|--12-12-12\-|--7--7--7/--|--9--9--9---|-
G|------------|------------|------------|------------|------------|- 
D|------------|------------|------------|------------|------------|- 
A|------------|------------|------------|------------|------------|-
E|------------|------------|------------|------------|------------|-

E|--0--0--0/--|--0--0--0/--|--0--0--0\--|--0--0--0/--|--0--0--0---|- 
B|--4--4--4/--|--5--5--5/--|--12-12-12\-|--7--7--7/--|--9--9--9---|-
G|------------|------------|------------|------------|------------|- 
D|------------|------------|------------|------------|------------|- 
A|------------|------------|------------|------------|------------|-
E|------------|------------|------------|------------|------------|-

E|--0--0--0/--|--0--0--0/--|--0--0--0\--|--0--0--0/--|--0--0--0---|- 
B|--4--4--4/--|--5--5--5/--|--12-12-12\-|--7--7--7/--|--9--9--9---|-
G|------------|------------|------------|------------|------------|- 
D|------------|------------|------------|------------|------------|- 
A|------------|------------|------------|------------|------------|-
E|------------|------------|------------|------------|------------|-

E|--0--0--0/--|--0--0--0/--|--0--0--0\--|--0--0--0/--|--0--0--0---|- 
B|--4--4--4/--|--5--5--5/--|--12-12-12\-|--7--7--7/--|--9--9--9---|-
G|------------|------------|------------|------------|------------|- 
D|------------|------------|------------|------------|------------|- 
A|------------|------------|------------|------------|------------|-
E|------------|------------|------------|------------|------------|-

E|-----0~~0---|------------|---12~~~-11~|------------|------------|- 
B|-----2~~2---|--2--5--2~~~|---12~~~----|------------|------------|- 
G|------------|------------|---9~~~-----|------------|------------|- 
D|------------|------------|------------|------------|------------|- 
A|------------|------------|------------|------------|------------|- 
E|------------|------------|------------|------------|------------|-

	Rhythm Guitar (comes in after intro riff is played once) plays this:
	E	E	
E|------------|------------|------------|------------|------------|- 
B|------------|------------|------------|------------|------------|- 
G|--9999999---|--9999999---|--9999999---|--9999999---|--9999999---|- 
D|--9999999---|--9999999---|--9999999---|--9999999---|--9999999---|- 
A|--7777777---|--7777777---|--7777777---|--7777777---|--7777777---|- 
E|------------|------------|------------|------------|------------|-  

	Bsus4				  Bsus4
E|------------|------------|------------|------------|------------|- 
B|------------|------------|------------|------------|------------|- 
G|--9999999---|--9999999---|--9999999---|--9999999---|--9999999---|- 
D|--9999999---|--9999999---|--9999999---|--9999999---|--9999999---|- 
A|------------|------------|------------|------------|------------|- 
E|--7777777---|--7777777---|--7777777---|--7777777---|--7777777---|-

	G#/Ab minor5			  G#/Ab minor5
E|------------|------------|------------|------------|------------|- 
B|------------|------------|------------|------------|------------|- 
G|------------|------------|------------|------------|------------|- 
D|--2222222---|--2222222---|--2222222---|--2222222---|--2222222---|- 
A|--2222222---|--2222222---|--2222222---|--2222222---|--2222222---|- 
E|--4444444---|--4444444---|--4444444---|--4444444---|--4444444---|-

	A9				  A9
E|------------|------------|------------|------------|-----xxxx---|- 
B|------------|------------|------------|------------|-----xxxx---|- 
G|--9999999---|--9999999---|--9999999---|--9999999---|--999xxxx---|- 
D|--9999999---|--9999999---|--9999999---|--9999999---|--999xxxx---|- 
A|------------|------------|------------|------------|-----xxxx---|- 
E|--0000000---|--0000000---|--0000000---|--0000000---|--000xxxx---|-

	A9		     E7     E	
E|------------|------------|-0~----0~---|------------|------------|- 
B|------------|------------|-0~----0~---|------------|------------|- 
G|--9~~9~~~~~~|--9~~9~~~~~~|-8~----9~---|------------|------------|- 
D|--9~~9~~~~~~|--9~~9~~~---|-9~----9~---|------------|------------|- 
A|------------|------------|-7~----7~---|------------|------------|- 
E|--0~~0~~~~~~|--9~~9~~~---|-0~----0~---|------------|------------|-

	Verse 1 (Lead Guitar)
	E			     A
E|------------|------------|------------|------------|
B|------------|------------|------------|------------|
G|-----9------|------9-----|------8-----|------8-----|
D|---9---9----|----9---9---|----9---9---|----9---9---| 
A|-7----------|--7---------|--0---------|--0---------| 
E|------------|------------|------------|------------|
	E			     A
E|------------|------------|------------|------------|
B|------------|------------|------------|------------|
G|-----9------|------9-----|------8-----|------8-----|
D|---9---9----|----9---9---|----9---9---|----9---9---| 
A|-7----------|--7---------|--0---------|--0---------| 
E|------------|------------|------------|------------|
	E			     A
E|------------|------------|------------|------------|
B|------------|------------|------------|------------|
G|-----9------|------9-----|------8-----|------8-----|
D|---9---9----|----9---9---|----9---9---|----9---9---| 
A|-7----------|--7---------|--0---------|--0---------| 
E|------------|------------|------------|------------|
	E			     A
E|------------|------------|------------|------------|
B|------------|------------|------------|------------|
G|-----9------|------9-----|------8-----|------8-----|
D|---9---9----|----9---9---|----9---9---|----9---9---| 
A|-7----------|--7---------|--0---------|--0---------| 
E|------------|------------|------------|------------|

	Rhythm Guitar:
	E9			     A6	
E|--2~--------|-----2~-----|-----2~-----|-----2~-----| 
B|--0~--------|-----0~-----|-----2~-----|-----2~-----|
G|--1~--------|-----1~-----|-----2~-----|-----2~-----|
D|--x~--------|-----x~-----|-----0~-----|-----0~-----|
A|--2~--------|-----2~-----|-----0~-----|-----0~-----|
E|--0~--------|-----0~-----|-----x~-----|-----x~-----|

	E9			     A6	
E|--2~--------|-----2~-----|-----2~-----|-----2~-----| 
B|--0~--------|-----0~-----|-----2~-----|-----2~-----|
G|--1~--------|-----1~-----|-----2~-----|-----2~-----|
D|--x~--------|-----x~-----|-----0~-----|-----0~-----|
A|--2~--------|-----2~-----|-----0~-----|-----0~-----|
E|--0~--------|-----0~-----|-----x~-----|-----x~-----|

	E9			     A6	
E|--2~--------|-----2~-----|-----2~-----|-----2~-----| 
B|--0~--------|-----0~-----|-----2~-----|-----2~-----|
G|--1~--------|-----1~-----|-----2~-----|-----2~-----|
D|--x~--------|-----x~-----|-----0~-----|-----0~-----|
A|--2~--------|-----2~-----|-----0~-----|-----0~-----|
E|--0~--------|-----0~-----|-----x~-----|-----x~-----|

	E9			     A6	
E|--2~--------|-----2~-----|-----2~-----|-----2~-----| 
B|--0~--------|-----0~-----|-----2~-----|-----2~-----|
G|--1~--------|-----1~-----|-----2~-----|-----2~-----|
D|--x~--------|-----x~-----|-----0~-----|-----0~-----|
A|--2~--------|-----2~-----|-----0~-----|-----0~-----|
E|--0~--------|-----0~-----|-----x~-----|-----x~-----|

	E9			     A6	
E|--2~--------|-----2~-----|-----2~-----|-----2~-----| 
B|--0~--------|-----0~-----|-----2~-----|-----2~-----|
G|--1~--------|-----1~-----|-----2~-----|-----2~-----|
D|--x~--------|-----x~-----|-----0~-----|-----0~-----|
A|--2~--------|-----2~-----|-----0~-----|-----0~-----|
E|--0~--------|-----0~-----|-----x~-----|-----x~-----|

	Pre-Chorus (Lead Guitar & Rhythm Guitar)
(During this part, build up towards the chorus)
	A9	  Bsus4	      C#/Dbmin7    "    E
E|------------|------------|------------|------------|------------|- 
B|------------|------------|------------|------------|------------|- 
G|-9999999999-|-9999999999-|-9999999999-|-9999x99999-|------------|- 
D|-9999999999-|-9999999999-|-9999999999-|-9999x99999-|------------|- 
A|-0000000000-|------------|------------|-----x77777-|------------|- 
E|------------|-7777777777-|-9999999999-|-9999x00000-|------------|-
 <----------palm muted---------------------->|-Strong!-|

E|------------|------------|------------|------------|------------|- 
B|------------|------------|------------|------------|------------|- 
G|-9999999999-|-9999999999-|-9999999999-|-9999x99999-|------------|- 
D|-9999999999-|-9999999999-|-9999999999-|-9999x99999-|------------|- 
A|-0000000000-|------------|------------|-----x77777-|------------|- 
E|------------|-7777777777-|-9999999999-|-9999x00000-|------------|-
 <----------palm muted---------------------->|-Strong!-|

	Chorus (Lead Guitar):
E|--0--0--0/--|--0--0--0/--|--0--0--0\--|--0--0--0/--|--0--0--0---|- 
B|--4--4--4/--|--5--5--5/--|--12-12-12\-|--7--7--7/--|--9--9--9---|-
G|------------|------------|------------|------------|------------|- 
D|------------|------------|------------|------------|------------|- 
A|------------|------------|------------|------------|------------|-
E|------------|------------|------------|------------|------------|-

E|--0--0--0/--|--0--0--0/--|--0--0--0\--|--0--0--0/--|--0--0--0---|- 
B|--4--4--4/--|--5--5--5/--|--12-12-12\-|--7--7--7/--|--9--9--9---|-
G|------------|------------|------------|------------|------------|- 
D|------------|------------|------------|------------|------------|- 
A|------------|------------|------------|------------|------------|-
E|------------|------------|------------|------------|------------|-

E|--0--0--0/--|--0--0--0/--|--0--0--0\--|--0--0--0/--|--0--0--0---|- 
B|--4--4--4/--|--5--5--5/--|--12-12-12\-|--7--7--7/--|--9--9--9---|-
G|------------|------------|------------|------------|------------|- 
D|------------|------------|------------|------------|------------|- 
A|------------|------------|------------|------------|------------|-
E|------------|------------|------------|------------|------------|-

E|--0--0--0/--|--0--0--0/--|--0--0--0\--|--0--0--0/--|--0--0--0---|- 
B|--4--4--4/--|--5--5--5/--|--12-12-12\-|--7--7--7/--|--9--9--9---|-
G|------------|------------|------------|------------|------------|- Repeat (x2)
D|------------|------------|------------|------------|------------|- 
A|------------|------------|------------|------------|------------|-
E|------------|------------|------------|------------|------------|-

E|-----0~~0---|------------|---12~~~-11~|------------|------------|- 
B|-----2~~2---|--2--5--2~~~|---12~~~----|------------|------------|- 
G|------------|------------|---9~~~-----|------------|------------|- 
D|------------|------------|------------|------------|------------|- 
A|------------|------------|------------|------------|------------|- 
E|------------|------------|------------|------------|------------|-

	Rhythm Guitar:
	E	E	
E|------------|------------|------------|------------|------------|- 
B|------------|------------|------------|------------|------------|- 
G|--9999999---|--9999999---|--9999999---|--9999999---|--9999999---|- 
D|--9999999---|--9999999---|--9999999---|--9999999---|--9999999---|- 
A|--7777777---|--7777777---|--7777777---|--7777777---|--7777777---|- 
E|------------|------------|------------|------------|------------|-  

	Bsus4				  Bsus4
E|------------|------------|------------|------------|------------|- 
B|------------|------------|------------|------------|------------|- 
G|--9999999---|--9999999---|--9999999---|--9999999---|--9999999---|- 
D|--9999999---|--9999999---|--9999999---|--9999999---|--9999999---|- 
A|------------|------------|------------|------------|------------|- 
E|--7777777---|--7777777---|--7777777---|--7777777---|--7777777---|-
	
	G#/Ab minor5			  G#/Ab minor5
E|------------|------------|------------|------------|------------|- 
B|------------|------------|------------|------------|------------|- 
G|------------|------------|------------|------------|------------|- 
D|--2222222---|--2222222---|--2222222---|--2222222---|--2222222---|- 
A|--2222222---|--2222222---|--2222222---|--2222222---|--2222222---|- 
E|--4444444---|--4444444---|--4444444---|--4444444---|--4444444---|-

	A9				  A9
E|------------|------------|------------|------------|-----xxxx---|- 
B|------------|------------|------------|------------|-----xxxx---|- 
G|--9999999---|--9999999---|--9999999---|--9999999---|--999xxxx---|- Repeat (x2)
D|--9999999---|--9999999---|--9999999---|--9999999---|--999xxxx---|- 
A|------------|------------|------------|------------|-----xxxx---|- 
E|--0000000---|--0000000---|--0000000---|--0000000---|--000xxxx---|-

	A9		     E7     E	
E|------------|------------|-0~----0~---|------------|------------|- 
B|------------|------------|-0~----0~---|------------|------------|- 
G|--9~~9~~~~~~|--9~~9~~~~~~|-8~----9~---|------------|------------|- 
D|--9~~9~~~~~~|--9~~9~~~---|-9~----9~---|------------|------------|- 
A|------------|------------|-7~----7~---|------------|------------|- 
E|--0~~0~~~~~~|--9~~9~~~---|-0~----0~---|------------|------------|-

	Verse 2(Lead Guitar) (Q&A PART)
	E			A
E|------------|------------|------------|------------|
B|------------|------------|------------|------------|
G|------------|------------|------------|------------|
D|---222------|--rest------|---777------|---rest-----| Repeat (x4)
A|---222------|--rest------|---777------|---rest-----|
E|---000------|--rest------|---555------|---rest-----|
	
	Rhythm Guitar:
		   E			      A
E|------------|------------|------------|------------| 
B|------------|---555------|---rest-----|--101010----|
G|------------|---444------|---rest-----|--9-9-9-----| 
D|------------|---222------|---rest-----|--7-7-7-----| Repeat (x4)
A|------------|------------|------------|------------|
E|------------|------------|------------|------------|

	Pre-Chorus (Lead Guitar & Rhythm Guitar)
	(During this part, build up towards the chorus)
	A9	  Bsus4	      C#/Dbmin7    "    E
E|------------|------------|------------|------------|------------|- 
B|------------|------------|------------|------------|------------|- 
G|-9999999999-|-9999999999-|-9999999999-|-9999x99999-|------------|- 
D|-9999999999-|-9999999999-|-9999999999-|-9999x99999-|------------|- 
A|-0000000000-|------------|------------|-----x77777-|------------|- 
E|------------|-7777777777-|-9999999999-|-9999x00000-|------------|-
 <----------palm muted---------------------->|-Strong!-|

E|------------|------------|------------|------------|------------|- 
B|------------|------------|------------|------------|------------|- 
G|-9999999999-|-9999999999-|-9999999999-|-9999x99999-|------------|- 
D|-9999999999-|-9999999999-|-9999999999-|-9999x99999-|------------|- 
A|-0000000000-|------------|------------|-----x77777-|------------|- 
E|------------|-7777777777-|-9999999999-|-9999x00000-|------------|-
 <----------palm muted---------------------->|-Strong!-|

	Chorus 2 (Both Guitars):
	E					E	
E|------------|------------|------------|------------|------------|- 
B|------------|------------|------------|------------|------------|- 
G|--9999999---|--9999999---|--9999999---|--9999999---|--9999999---|- 
D|--9999999---|--9999999---|--9999999---|--9999999---|--9999999---|- 
A|--7777777---|--7777777---|--7777777---|--7777777---|--7777777---|- 
E|------------|------------|------------|------------|------------|-  

	Bsus4				  Bsus4
E|------------|------------|------------|------------|------------|- 
B|------------|------------|------------|------------|------------|- 
G|--9999999---|--9999999---|--9999999---|--9999999---|--9999999---|- 
D|--9999999---|--9999999---|--9999999---|--9999999---|--9999999---|- 
A|------------|------------|------------|------------|------------|- 
E|--7777777---|--7777777---|--7777777---|--7777777---|--7777777---|-

	G#/Ab minor5			  G#/Ab minor5
E|------------|------------|------------|------------|------------|- 
B|------------|------------|------------|------------|------------|- 
G|------------|------------|------------|------------|------------|- 
D|--2222222---|--2222222---|--2222222---|--2222222---|--2222222---|- 
A|--2222222---|--2222222---|--2222222---|--2222222---|--2222222---|- 
E|--4444444---|--4444444---|--4444444---|--4444444---|--4444444---|-

	A9				  A9
E|------------|------------|------------|------------|-----xxxx---|- 
B|------------|------------|------------|------------|-----xxxx---|- 
G|--9999999---|--9999999---|--9999999---|--9999999---|--999xxxx---|- Repeat (x2)
D|--9999999---|--9999999---|--9999999---|--9999999---|--999xxxx---|- 
A|------------|------------|------------|------------|-----xxxx---|- 
E|--0000000---|--0000000---|--0000000---|--0000000---|--000xxxx---|-

	A9		     E7     E	
E|------------|------------|-0~----0~---|------------|------------|- 
B|------------|------------|-0~----0~---|------------|------------|- 
G|--9~~9~~~~~~|--9~~9~~~~~~|-8~----9~---|------------|------------|- 
D|--9~~9~~~~~~|--9~~9~~~---|-9~----9~---|------------|------------|- 
A|------------|------------|-7~----7~---|------------|------------|- 
E|--0~~0~~~~~~|--9~~9~~~---|-0~----0~---|------------|------------|-

	Bridge - Rest for both guitars (Bass Only)

Bass |-----A-----|-----B-----|----C#------|-----E-----| Repeat (x4) (Soft at first; build up)

	Chorus (Lead Guitar):
E|--0--0--0/--|--0--0--0/--|--0--0--0\--|--0--0--0/--|--0--0--0---|- 
B|--4--4--4/--|--5--5--5/--|--12-12-12\-|--7--7--7/--|--9--9--9---|-
G|------------|------------|------------|------------|------------|- 
D|------------|------------|------------|------------|------------|- 
A|------------|------------|------------|------------|------------|-
E|------------|------------|------------|------------|------------|-

E|--0--0--0/--|--0--0--0/--|--0--0--0\--|--0--0--0/--|--0--0--0---|- 
B|--4--4--4/--|--5--5--5/--|--12-12-12\-|--7--7--7/--|--9--9--9---|-
G|------------|------------|------------|------------|------------|- 
D|------------|------------|------------|------------|------------|- 
A|------------|------------|------------|------------|------------|-
E|------------|------------|------------|------------|------------|-

E|--0--0--0/--|--0--0--0/--|--0--0--0\--|--0--0--0/--|--0--0--0---|- 
B|--4--4--4/--|--5--5--5/--|--12-12-12\-|--7--7--7/--|--9--9--9---|-
G|------------|------------|------------|------------|------------|- 
D|------------|------------|------------|------------|------------|- 
A|------------|------------|------------|------------|------------|-
E|------------|------------|------------|------------|------------|-

E|--0--0--0/--|--0--0--0/--|--0--0--0\--|--0--0--0/--|--0--0--0---|- 
B|--4--4--4/--|--5--5--5/--|--12-12-12\-|--7--7--7/--|--9--9--9---|-
G|------------|------------|------------|------------|------------|- Repeat (x2)
D|------------|------------|------------|------------|------------|- 
A|------------|------------|------------|------------|------------|-
E|------------|------------|------------|------------|------------|-

E|-----0~~0---|------------|---12~~~-11~|------------|------------|- 
B|-----2~~2---|--2--5--2~~~|---12~~~----|------------|------------|- 
G|------------|------------|---9~~~-----|------------|------------|- 
D|------------|------------|------------|------------|------------|- 
A|------------|------------|------------|------------|------------|- 
E|------------|------------|------------|------------|------------|-

	Rhythm Guitar:
	E	E	
E|------------|------------|------------|------------|------------|- 
B|------------|------------|------------|------------|------------|- 
G|--9999999---|--9999999---|--9999999---|--9999999---|--9999999---|- 
D|--9999999---|--9999999---|--9999999---|--9999999---|--9999999---|- 
A|--7777777---|--7777777---|--7777777---|--7777777---|--7777777---|- 
E|------------|------------|------------|------------|------------|-  

	Bsus4				  Bsus4
E|------------|------------|------------|------------|------------|- 
B|------------|------------|------------|------------|------------|- 
G|--9999999---|--9999999---|--9999999---|--9999999---|--9999999---|- 
D|--9999999---|--9999999---|--9999999---|--9999999---|--9999999---|- 
A|------------|------------|------------|------------|------------|- 
E|--7777777---|--7777777---|--7777777---|--7777777---|--7777777---|-
	
	G#/Ab minor5			  G#/Ab minor5
E|------------|------------|------------|------------|------------|- 
B|------------|------------|------------|------------|------------|- 
G|------------|------------|------------|------------|------------|- 
D|--2222222---|--2222222---|--2222222---|--2222222---|--2222222---|- 
A|--2222222---|--2222222---|--2222222---|--2222222---|--2222222---|- 
E|--4444444---|--4444444---|--4444444---|--4444444---|--4444444---|-

	A9				  A9
E|------------|------------|------------|------------|-----xxxx---|- 
B|------------|------------|------------|------------|-----xxxx---|- 
G|--9999999---|--9999999---|--9999999---|--9999999---|--999xxxx---|- Repeat (x2)
D|--9999999---|--9999999---|--9999999---|--9999999---|--999xxxx---|- 
A|------------|------------|------------|------------|-----xxxx---|- 
E|--0000000---|--0000000---|--0000000---|--0000000---|--000xxxx---|-

	A9		     E7     E	
E|------------|------------|-0~----0~---|
B|------------|------------|-0~----0~---|
G|--9~~9~~~~~~|--9~~9~~~~~~|-8~----9~---|
D|--9~~9~~~~~~|--9~~9~~~---|-9~----9~---|
A|------------|------------|-7~----7~---|
E|--0~~0~~~~~~|--9~~9~~~---|-0~----0~---|

============ REPEAT CHORUS 3 TIMES ===========
	
	Outro (Lead Guitar):

E|---0/--0\---|---0~~~~~---|---0/--0\---|---0-~~~~~--|
B|---4/--5\---|---2~~~~~---|---4/--5/---|---12~~~~~--| 
G|------------|------------|------------|------------|
D|------------|------------|------------|------------|
A|------------|------------|------------|------------|
E|------------|------------|------------|------------|

E|------------|------------|------------|---2--------|------------|- 
B|------------|------------|------------|---0--------|------------|- 
G|---rest-----|----rest----|----rest----|---1--ring--|---ring-----|- 
D|------------|------------|------------|---x--------|------------|- 
A|------------|------------|------------|---2--------|------------|- 
E|------------|------------|------------|---0--------|------------|-

Tap to rate this tab
 
# A B C D E F G H I J K L M N O P Q R S T U V W X Y Z