Song name
# A B C D E F G H I J K L M N O P Q R S T U V W X Y Z

Misc Unsigned Bands - Isaryce - Corrupt tab

^ - Tremolo Picking
+ - Tapping
~ - Wave Bend (whammy)
_ - (If there is a line between Guitar 1 & 2 they are not played simultaneously)


Intro - (Clean) Guitar II
---------------------------------------------------------------|
---------------------------------------------------------------|
---------------------------------------------------------------|
--------3-2----------1-0----------3-2----------1-0-------------|
-0--3-2-------0--3-2-------0--3-2-------0--3-2-----------------|
-0------------0------------0------------0----------------------|

_________________________________________________________________________

(Distortion) Guitar I

---------------------------------|x2|
---------------------------------|x2|
---------------------------------|x2|
---------------------------------|x2|
-2---------------2---------------|x2|
-0-0-0-0-0-0-0-0-0-0-0-0-0-0-0-0-|x2|

_________________________________________________________________________

Guitar I & II

---------------------------------------------------------------|
---------------------------------------------------------------|
---------------------------------------------------------------|
--------3-2----------1-0----------3-2------------1-------------|
-0--3-2-------0--3-2-------0--3-2-------0--3-2-0-1-------------|
-0------------0------------0------------0----------------------|

_________________________________________________________________________

Guitar II

---------------------------------|x4|
---------------------------------|x4|
---------------------------------|x4|
---------------------------------|x4|
---------------------------------|x4|
-0-0-0-0-0-2-3-2-0-0-0-0-0-3-6-3-|x4|

_________________________________________________________________________

Guitar I

---------------------|x2|---------------------|x2|
---------------------|x2|---------------------|x2|
---------------------|x2|---------------------|x2|
---------------------|x2|---------------------|x2|
-0-0-0-0-3-2-5-3-6-4-|x2|-0-0-0-0-5-4-7-5-8-6-|x2|
---------------------|x2|---------------------|x2|
 ^ ^ ^ ^                  ^ ^ ^ ^

_________________________________________________________________________
Guitar II

---------------------------------|x8|
---------------------------------|x8|
---------------------------------|x8|
---------------------------------|x8|
---------------------------------|x8|
-0-0-0-0-0-2-3-2-0-0-0-0-0-3-6-3-|x8|

Guitar I

-------------------------------------------|x4|
-------------------------------------------|x4|
-------------------------------------------|x4|
-------------3--------------------4--------|x4|
-0-0-0-0-2-3---3-2-0--0-0-0-0-2-3---3-2-0--|x4|
-------------------------------------------|x4|
 ^ ^ ^ ^              ^ ^ ^ ^

------------------------|x2|
------------------------|x2|
------------------------|x2|
-3-2-0------2-------4---|x2|
-3-2-0--2-3---3-2-3---3-|x2|
------------------------|x2|

-------------------------------------------|x2|
-------------------------------------------|x2|
-------------------------------------------|x2|
-------------3--------------------4--------|x2|
-0-0-0-0-2-3---3-2-0--0-0-0-0-2-3---3-2-0--|x2|
-------------------------------------------|x2|
 ^ ^ ^ ^              ^ ^ ^ ^
_________________________________________________________________________

Guitar I
----------------------------|
----------------------------|
----------------------------|
----------------------------|
-0-0--0-0-0-0--0-0-0-0--0-0-|
----------------------------|
      ^ ^ ^ ^  ^ ^ ^ ^   
_________________________________________________________________________

Guitar II

---------------------------------|x4|
---------------------------------|x4|
---------------------------------|x4|
---------------------------------|x4|
---------------------------------|x4|
-0-0-0-0-0-2-3-2-0-0-0-0-0-3-6-3-|x4|

Guitar I

-------------------------------------------|x4|
-------------------------------------------|x4|
-------------------------------------------|x4|
-------------3--------------------4--------|x4|
-0-0-0-0-2-3---3-2-0--0-0-0-0-2-3---3-2-0--|x4|
-------------------------------------------|x4|
 ^ ^ ^ ^              ^ ^ ^ ^
__________________________________________________________________________

Guitar I

-----------------|x4|-----------------|x2|-----------------|x2|
-----------------|x4|-----------------|x2|-----------------|x2|
-----------------|x4|-----------------|x2|-----------------|x2|
---------4-------|x4|---------6-------|x2|---------9-------|x2|
-3-1-3-4---4-3-1-|x4|-5-3-5-6---6-5-3-|x2|-8-6-8-9---9-8-6-|x2|
-----------------|x4|-----------------|x2|-----------------|x2|

__________________________________________________________________________


Guitar I

---------------------------------------------------------------|
---------------------------------------------------------------|
----------------------------------7-9-10---------9-10-12-------|
---------------------------7-9-10--------9-10-12---------------|
-------5-7-8--------7-8-10-------------------------------------|
-5-7-8-------7-8-10--------------------------------------------|

_________________________________________________________________________

Guitar II

--------------------------------------------------|x2|
--------------------------------------------------|x2|
---------------------------------------------3-2--|x2|
-10--9-12--10-9-7--9-5--5-7~-10--9-12--10-0--0-0--|x2|
--------------------------------------------------|x2|
--------------------------------------------------|x2|

_________________________________________________________________________

Guitar I

------------------------------------|x2|
------------------------------------|x2|
---------------10-9-7---------------|x2|
-7--9-10--7--7--------10-9-7-9-10-5-|x2|
------------------------------------|x2|
------------------------------------|x2|

________________________________________________________________________

Guitar I

-------|-------------------------|x4|
-------|-------------------------|x4|
-------|-------9-8-6-------------|x4|
-5-4---|9-8-6--------9-8-6-9-8---|x4|
-----6-|-----------------------6-|x4|
-------|-------------------------|x4|

Guitar II

--------------------------------------------------------------------------------|x2|
--------------------------------------------------------------------------------|x2|
--------------------------------------------------------------------------------|x2|
--------------------------------------------------------------------------------|x2|
-11-11-11-11-14-11-11-11-11-14-11-11-14--13-13-13-13-16-13-13-13-13-16-13-13-16-|x2|
--------------------------------------------------------------------------------|x2|
 ^  ^  ^  ^  ^  ^  ^  ^  ^  ^  ^  ^  ^   ^  ^  ^  ^  ^  ^  ^  ^  ^  ^  ^  ^ ^
____________________________________________________________________________________

Guitar I

----------------|x4|----------------|x4|=[x2]
----------------|x4|----------------|x4|=[x2]
----------------|x4|----------------|x4|=[x2]
-9-16-11-9-16-12|x4|-9-17-11-9-17-12|x4|=[x2]
----------------|x4|----------------|x4|=[x2]
----------------|x4|----------------|x4|=[x2]
 +  +  + +  +  +     +  +  + +  +  +

----------------|x4|----------------|x4|=[x2]
----------------|x4|----------------|x4|=[x2]
----------------|x4|----------------|x4|=[x2]
-9-19-11-9-19-12|x4|-9-18-11-9-18-12|x4|=[x2]
----------------|x4|----------------|x4|=[x2]
----------------|x4|----------------|x4|=[x2]
 +  +  + +  +  +     +  +  + +  +  +
_______________________________________________________________________

Guitar I & 2

---------------------------------------------------------------|x7|
---------------------------------------------------------------|x7|
---------------------------------------------------------------|x7|
--------3-2----------1-0----------3-2----------1-0-------------|x7|
-0--3-2-------0--3-2-------0--3-2-------0--3-2-----------------|x7|
-0------------0------------0------------0----------------------|x7|

-------------------------------------------------0-------------|
-------------------------------------------------0-------------|
-------------------------------------------------0-------------|
--------3-2----------1-0----------3-2----------1-2-------------|
-0--3-2-------0--3-2-------0--3-2-------0--3-2---2-------------|
-0------------0------------0------------0--------0-------------|

Tap to rate this tab
# A B C D E F G H I J K L M N O P Q R S T U V W X Y Z