Song name
# A B C D E F G H I J K L M N O P Q R S T U V W X Y Z

Misc Unsigned Bands - Andrew Landon - I Loved You tab

-------------------------------------------------------------------------------
			     I Loved You – Andrew Landon
-------------------------------------------------------------------------------
Tabbed by: Dave Norris
Email: x-box_masta788@hotmail.com

Ok, this should be pretty accurate. There are some parts that I’ve slightly edited just 
ease of play but it sounds VERY close to the way Andrew plays it. Please e-mail me some 
I’d like to see how this is received. Enjoy!

        			   Intro

e|-----3-----3--5—-7-----7--5--3--2--0-----0-----1-----1-----0-----0--3--2---|
B|-----3-----3--3--4-----4-----------0-----0-----0-----0--3--1-----1-----3---|
G|-----0--0-----------4--------------0--0-----0-----0--------0--0--------2---|
D|---------------------------------------------------------------------------|
A|---------------------------------------------------------------------------|
E|---------------------------------------------------------------------------|

e|-----3p2p0h2--2-----2-----2-----3p2----------3-----3--5--7-----7--5--3--2--|
B|--------------2-----2-----3---------3----3---3-----3--3--4-----4-----------|
G|--2-----------0--0-----0-----2--------2------0--0-----------4--------------|
D|---------------------------------------------------------------------------|
A|---------------------------------------------------------------------------|
E|---------------------------------------------------------------------------|
                                                              G
e|--0-----0-----1-----1-----0-----0--3--2-----3p2p0h2--3--2---3--------------|
B|--0-----0-----0-----0--3--1-----1-----3--------------3--3---3--------------|
G|--0--0-----0-----0--------0--0--------2--2-----------0--2---0--------------|
D|------------------------------------------------------------0--------------|
A|------------------------------------------------------------2--------------|
E|------------------------------------------------------------3--------------|

 G   D/F#  Em
Raindrops will
            C
Take these dreams out of my head
        D
Of two faces better left unsaid
     G    D/F# Em
And miles away
              C                    D
When we're together we'll see what is this you and me?
             Em       D     G        D/F#    C
Oh, I could hold you in my arms this night away
           Em      D        G          D/F#     C
Would you fall in love with me if you heard me say?
 G    D/F#   Em
These night skies,
     C
The stars, so beautiful,
        D
You're happy when you see them move and,
G  D/F#  Em
Miles today?
    C                           D
To see your sparkling eyes and see through my disguise
           Em       D     G        D/F#    C
And I can hold you in my arms this night away
          Em      D         G          D/F#     C
Would you fall in love with me? If you heard me say
 C
If you heard me say

That I loved you

Bridge

e|------3---2---0------3--3---2---0---0----7--7---8---8---8------------------|
B|---------------------------------------------------------------------------|
G|------4---2---0------4--4---2---0---0----7--7---9---9---9------------------|
D|---------------------------------------------------------------------------|
A|---------------------------------------------------------------------------|
E|---0--------------0--------------------7---7-/-8---8---8-------------------|

e|------3---2---0------3--3---2---0---0----7--7---8---8---8------------------|
B|---------------------------------------------------------------------------|
G|------4---2---0------4--4---2---0---0----7--7---9---9---9------------------|
D|---------------------------------------------------------------------------|
A|---------------------------------------------------------------------------|
E|---0--------------0--------------------7---7-/-8---8---8-------------------|

   I loved you
e|------3---2---0------3--3---2---0---0----7--7---8---8---8------------------|
B|---------------------------------------------------------------------------|
G|------4---2---0------4--4---2---0---0----7--7---9---9---9------------------|
D|---------------------------------------------------------------------------|
A|---------------------------------------------------------------------------|
E|---0--------------0--------------------7---7-/-8---8---8-------------------|

e|------3---2---0------3--3---2---0---0----7--7---8--------------------------|
B|---------------------------------------------------------------------------|
G|------4---2---0------4--4---2---0---0----7--7---9--------------------------|
D|---------------------------------------------------------------------------|
A|---------------------------------------------------------------------------|
E|---0--------------0--------------------7---7-/--8--------------------------|
                                              let ring…

              C        Em         D/F#      G       D
That I could write for you these words you long to hear
           C        Em     D/F#       G     D
But these raindrops they disguise my subtle tears
       C       Em     D/F#       G     D
I will hold you in my arms this night away
          C       Em       D/F#         G        D
Would you fall in love with me, if you heard me say

That I loved you
e|-----3-----3--5—-7-----7--5--3--2--0-----0-----1-----1-----0-----0--3--2---|
B|-----3-----3--3--4-----4-----------0-----0-----0-----0--3--1-----1-----3---|
G|-----0--0-----------4--------------0--0-----0-----0--------0--0--------2---|
D|---------------------------------------------------------------------------|
A|---------------------------------------------------------------------------|
E|---------------------------------------------------------------------------|
                     G
e|-------2h3p2p0h2---3-------------------------------------------------------|
B|-------------------3-------------------------------------------------------|
G|--2----------------0-------------------------------------------------------|
D|-------------------0-------------------------------------------------------|
A|-------------------2-------------------------------------------------------|
E|-------------------3-------------------------------------------------------|

              C        Em         D/F#      G       D
That I could write for you these words you long to hear
           C        Em     D/F#       G     D
But these raindrops they disguise my subtle tears
       C       Em     D/F#       G     D
I will hold you in my arms this night away
          C       Em       D/F#         G        D
Would you fall in love with me, if you heard me say

              C   Em   G   D/F#  D     D/F#    C
That I loved you…
Tap to rate this tab
 
# A B C D E F G H I J K L M N O P Q R S T U V W X Y Z