Guitaretab - guitar tabs
Song name
# A B C D E F G H I J K L M N O P Q R S T U V W X Y Z

Misc Unsigned Bands - Chasing Amy - Heroes tab

--------------------------
HEROES
CHASING AMY
--------------------------
there is a 3 note guitar intro which i have not tabbed. should be easy to figure out though. 

VERSE
E|--------------------------------------------------------------------|
B|--------------------------------------------------------------------|
G|--------------------------------------------------------------------|
D|------65h6------8-7h8------10-9h10---12-12--10-8-6-----------------|
A|-4-4---------6-6--------8-8-----------------------------------------|
E|--------------------------------------------------------------------| x5

CHORUS 
E|--------------------------------------------------------------------|
B|--------------------------------------------------------------------|
G|--6--8--------------------------------------------------------------|
D|--6--8--6--5-6-----------------------------------------------------|
A|--4--6--8--8--8-----------------------------------------------------|
E|--------------------------------------------------------------------| x4

VERSE
E|--------------------------------------------------------------------|
B|--------------------------------------------------------------------|
G|--------------------------------------------------------------------|
D|------65h6------8-7h8------10-9h10---12-12--10-8-6-----------------|
A|-4-4---------6-6--------8-8-----------------------------------------|
E|--------------------------------------------------------------------| x6
[ Tab from: http://www.guitaretab.com/m/misc-unsigned-bands/175191.html ]
CHORUS 
E|--------------------------------------------------------------------|
B|--------------------------------------------------------------------|
G|--6--8--------------------------------------------------------------|
D|--6--8--6--5-6-----------------------------------------------------|
A|--4--6--8--8--8-----------------------------------------------------|
E|--------------------------------------------------------------------| x4

VERSE
E|--------------------------------------------------------------------|
B|--------------------------------------------------------------------|
G|--------------------------------------------------------------------|
D|------65h6------8-7h8------10-9h10---12-12--10-8-6-----------------|
A|-4-4---------6-6--------8-8-----------------------------------------|
E|--------------------------------------------------------------------| x3

CHORUS 
E|--------------------------------------------------------------------|
B|--------------------------------------------------------------------|
G|--6--8--------------------------------------------------------------|
D|--6--8--6--5-6-----------------------------------------------------|
A|--4--6--8--8--8-----------------------------------------------------|
E|--------------------------------------------------------------------| x4

OUTRO CHORUS 
E|--------------------------------------------------------------------|
B|--------------------------------------------------------------------|
G|--6-----------------------------------------------------------------|
D|--6--6--8-3--------------------------------------------------------|
A|--4--6--8--3--------------------------------------------------------|
E|-----4--6--1--------------------------------------------------------| x4

end on:
|----------|
|----------|
|----------|
|---3------|
|---3------|
|---1------|
Related for Chasing Amy - Heroes tab