Guitaretab - guitar tabs
Song name
# A B C D E F G H I J K L M N O P Q R S T U V W X Y Z

Misc Unsigned Bands - Chasing Amy - Take Me Away tab

--------------------------------
TAKE ME AWAY 
CHASING AMY
--------------------------------
Verses are slow, melodic, acoustic style
Choruses are fast punk rock style

VERSE 
E|-----------------------------------------------------|
B|-----------------------------------------------------|
G|--88888--888-----------------------------------------|
D|--66666--666--88----66666--666--10-10----------------|
A|--66666--666--66----44444--444--8--8-----------------|
E|--------------66----44444--444--8--8-----------------| x2
    
    12345  DUD        12345  DUD

PRE CHORUS 
E|-------------------------------------------------------------------|
B|-------------------------------------------------------------------|
G|--8888------------------------------8888---------------------------|
D|--6666--8888--6666----10-10-10-10---6666--8888----10-10---8-8---6--|
A|--6666--6666--4444----8--8--8--8----6666--6666----8-8----6-6---4--|
E|--------6666--4444----8--8--8--8----------6666----8--8----6-6---4--| 
    
    1234  1234  1234    1  2  3  4    1234  1234    Better. Off. Dead.

CHORUS (gets faster)
E|-------------------------------------------------------------------|
B|-------------------------------------------------------------------|
G|-------------------------------------------------------------------|
D|--10-10-10--666--666--888---10-10-10--666-----10-10--8-8--6--------|
A|--8--8--8---444--666--888---8--8--8---444-----8--8---6-6--4--------|
E|--8--8--8---444--444--666---8--8--8---444-----8--8---6-6--4--------| x2
[ Tab from: http://www.guitaretab.com/m/misc-unsigned-bands/175192.html ]
VERSE 
E|-----------------------------------------------------|
B|-----------------------------------------------------|
G|--88888--888-----------------------------------------|
D|--66666--666--88----66666--666--10-10----------------|
A|--66666--666--66----44444--444--8--8-----------------|
E|--------------66----44444--444--8--8-----------------| x2
    
    12345  DUD        12345  DUD

PRE CHORUS 
E|-------------------------------------------------------------------|
B|-------------------------------------------------------------------|
G|--8888------------------------------8888---------------------------|
D|--6666--8888--6666----10-10-10-10---6666--8888----10-10---8-8---6--|
A|--6666--6666--4444----8--8--8--8----6666--6666----8-8----6-6---4--|
E|--------6666--4444----8--8--8--8----------6666----8--8----6-6---4--| 
    
    1234  1234  1234    1  2  3  4    1234  1234   Better.  Off. Dead.

SOLO 
E|-----------------------------------------------------------|
B|-----------------------------------------------------------|
G|-----------------------------------------------------------|
D|--9/15--15-15-15--11-11-11--13-13-13-11h13p11-10h11p11---|
A|-----------------------------------------------------------|
E|-----------------------------------------------------------|



E|-----------------------------------------------------------|
B|-----------------------------------------------------------|
G|-----------------------------------------------------------|
D|--9/15--15-15-15--11-11-11---------------------------------|
A|----------------------------13h15p1311h13p11--11----------|
E|-----------------------------------------------------------|
                                                 vib

DOUBLE CHORUS (OUTRO)
E|-------------------------------------------------------------------|
B|-------------------------------------------------------------------|
G|-------------------------------------------------------------------|
D|--10-10-10--666--666--888---10-10-10--666-----10-10--8-8--6--------|
A|--8--8--8---444--666--888---8--8--8---444-----8--8---6-6--4--------|
E|--8--8--8---444--444--666---8--8--8---444-----8--8---6-6--4--------| x4
Related for Chasing Amy - Take Me Away tab