Song name
# A B C D E F G H I J K L M N O P Q R S T U V W X Y Z

Misc Unsigned Bands - Chasity F - You Leave Me Breathless tab

CAPO:3
e|---------3----------0-------0----------------3--------0--------0-----------|
B|---0h1----------1-----------1----------0h1---------1-----------1-----------|
G|----------------------------0----------------------------------0-----------|
D|----------------------------2----------------------------------2-----------|
A|----------------------------3----------------------------------3-----------|
E|---------------------------------------------------------------------------|

e|---------------------------------------------------------------------------|
B|------------1-------------1---------------------1--------------1-----------|
G|--------0------0--------0----0----------------0----0--------0-----0--------|
D|-----2-----------2----2---------2-----------2--------2----2---------2------|
A|--3----------------3---------------------0-------------0-------------------|
E|---------------------------------------------------------------------------|
Repeat

start chords:
Em7 Cadd9 (2x's)
G F/G Em7 Cadd9
Cadd9 Em7 F/G
Cadd9 Em7 F/G G
(hard on G)

e|---------------------------------------------------------------------------|
B|----------1-------0-----3-------------2------0-----3-----------------------|
G|------0------0-------0-----0-------2-----2------2------2-------------------|
D|---------------------------------------------------------------------------|
A|---3-----------------------------0-----------------------------------------|
E|---------------------------------------------------------------------------|

Repeat

C with the B string 1st fret, then open, then third
same with Am

Repeat

Hammer on to Em7 G  (3x's) Cadd9
Repeat
hold Cadd9 

e|------------------3-------------------------------3------------------------|
B|----------------3-----3------------------------3-----3---------------------|
G|-----------0-------------0------------------0----------0-------------------|
D|-------0--------------------0-------------0--------------0-----------------|
A|---------------------------------------------------------------------------|
E|---3--------------------------------2--------------------------------------|

e|-----------------3---------------------------3-----------------------------|
B|---------------3----3----------------------3----3--------------------------|
G|---------0-----------0------------------0--------0-------------------------|
D|------0----------------0--------------0------------0-----------------------|
A|-------------------------------------3-------------------------------------|
E|---0-----------------------------------------------------------------------|

All down strums G F/G Em7 Cadd9
Repeat

C E Am F (2x's) G 
hold G
C

e|---------------------------------------------------------------------------|
B|------------1-------------1---------------------1--------------1-----------|
G|--------0------0--------0----0----------------0----0--------0-----0--------|
D|-----2-----------2----2---------2-----------2--------2----2---------2------|
A|--3----------------3---------------------0-------------0-------------------|
E|---------------------------------------------------------------------------|


| h  hammer-on


Tap to rate this tab
# A B C D E F G H I J K L M N O P Q R S T U V W X Y Z