Song name
# A B C D E F G H I J K L M N O P Q R S T U V W X Y Z

Misc Unsigned Bands - Purple Spirit - In The Sky tab

INTRO

  Am            F            A              
|-----------------------------------------------------------|
|-----1-0-1----------------------2-0-3-2--------------------|
|---1---------------2-0-3------2---------2-0-2~~~~~~~~-(3)--|  x2
|-2--------------3-----------2------------------------------|
|--------------3--------------------------------------------|
|-----------------------------------------------------------|

|-----------------------------|
|-----------------------------|
|-----------------------------| x2 before lyrics start
|---------------x-x-----------| 
|----------x-x------x-x-------|
|-x-x--x-x--------------x-x---|

Am  F  A  E


Am                         F          A            E
When I was Looking in the sky... you appear in my eyes
Am     Dm          G7        C     E7
Maybe, It was only one of my crazy dreams...

 
Solo Electric Guitar ( Heavy Echoes)

|-----------------------------------------------------------------------|
|-----------------------------------8-8--10bb---------------------------|
|----------5-5b--7--5--7--5--7bb--5-------------12b---9/7/5-------------|
|-----5/7----------------------------------------------------5--7bb-----|
|-----------------------------------------------------------------------|
|-----------------------------------------------------------------------|

|---------------------------------------------------|
|---------------------------------------------------|
|------7---9b/12b----10-9---------------------------|
|--9b---------------------10-9---7--9b--7=>5=>3-----|
|-----------------------------------------------0---|
|---------------------------------------------------|
Tap to rate this tab
# A B C D E F G H I J K L M N O P Q R S T U V W X Y Z