Guitaretab - guitar tabs
Song name
# A B C D E F G H I J K L M N O P Q R S T U V W X Y Z

Misc Unsigned Bands - Ocean Automatica - 834 tab

Intro
--------------------------------|
--------------------------------|
---------------------9----------| X4
--0-000-0-320-0-10h12-10-12-10--|
--0-000-0-320-0-10h12----12-10--|
--0-000-0-320-0-10h12----12-10--|

Right After 4th Time

-------------------|
-------------------|
-------------------|
10-10-10--12-12-12-|
10-10-10--12-12-12-|
10-10-10--12-12-12-|

Verse

----------------------|
----------------------|
----------------------|
-7-----7----12s3-5-3--| X4
--8-----8---12s3-5-3--|
8--8-10--10-12s3-5-3--|

Chorus
-----------------------|
-----------------------|
-----------------------|
121212-888888888-5555--|X6
121212-888888888-5555--|
121212-888888888-5555--|

Breakdown

-------------------------|
-------------------------|
-------------------------|
0-0000000-0000000-00-00--| X4
0-0000000-0000000-00-00--|
0-0000000-0000000-00-00--|

Bridge

The First time is all on the first chord

---------|
10-------|
8--10-9--|
7--8--10-| X5
---8--8--|

Breakdown thing
[ Tab from: http://www.guitaretab.com/m/misc-unsigned-bands/175199.html ]
-----------------------------|
-----------------------------|
-----------------------------|
0-3-1-0----0-1-3-1-0---------| X4
0-3-1-0-[3]0-1-3-1-0-[3]-----|
0-3-1-0----0-1-3-1-0---------|3]

--------------------------------|
--------------------------------|
----------5-7-5-5h7p5--9h10p9---|
-7h8p7--00-0-0-0-----7-------10-| X4
------8-00-0-0-0----------------|
--------00-0-0-0----------------|

--------------------|
--------------------|
--------------------|
-999999-101010101010
-777777-8-8-8-8-8-8-|
-777777-8-8-8-8-8-8-|

Chorus X6

Bridge
-----------------------------------------------------------|
-----------------------------------------------------------|
--------------------10---10--9--7--6--6--6--6--3--3--2--2--|
-1200-1200-1200-1200--00--00-00-00-00-00-00--00-00-00-00---| X2
---00---00---00---00--00--00-00-00-00-00-00--00-00-00-00---|
---00---00---00---00--00--00-00-00-00-00-00--00-00-00-00---|

I didnt put the strumming pattern  in this part
--------------|
--------------|
----10-9-3-2--|
-12-8--8-x-x--| X2
-8--8--8-3-3--|
-8--8--8-3-3--|

-------|
-------|
-------|
-12-12-|
-8--10-|
-8--10-|

Verse X4

we can work on a second part for the end later
Related for Ocean Automatica - 834 tab
Advertisement will be closed in 10 seconds