Song name
# A B C D E F G H I J K L M N O P Q R S T U V W X Y Z

Misc Unsigned Bands - The Crimson Soldiers - Standard Teenager tab



~: Shake/Wobble (Can't remember the real name for it.)



E:----------------------|----------------------------------------|
B:----------------------|----------------12-10--12-10------------|
G:-----7--9--11--12~~~~~|-----7--9--11-----------------12-11~~~~~|
D:--7-------------------|--7-------------------------------------|
A:----------------------|----------------------------------------|
E:----------------------|----------------------------------------|


E:----------------------------------------------------|
B:----------------------------------------------------|
G:-----7--9--11----12--11-12--11---9---7--------------|
D:--7--------------------------------------7~~~~~~~~~~|
A:----------------------------------------------------|
E:----------------------------------------------------|


E:----------------------|----------------------------------------|
B:----------------------|----------------12-10--12-10------------|
G:-----7--9--11--12~~~~~|-----7--9--11-----------------12-11~~~~~|
D:--7-------------------|--7-------------------------------------|
A:----------------------|----------------------------------------|
E:----------------------|----------------------------------------|


E:----------------------------------------------------|
B:----------------------------------------------------|
G:-----7--9--11----12--11-12--11---9---7---7~~~~~~~~~~|
D:--7-------------------------------------------------|
A:----------------------------------------------------|
E:----------------------------------------------------|



Repeat all of the above twice.
Tap to rate this tab
# A B C D E F G H I J K L M N O P Q R S T U V W X Y Z