Guitaretab - guitar tabs
Song name
# A B C D E F G H I J K L M N O P Q R S T U V W X Y Z

Misc Unsigned Bands - Pigeons From Hell - Is This For Real tab

----------------------------------------------------------------------------
                    IS THIS FOR REAL? - Pigeons From Hell
----------------------------------------------------------------------------
Tabbed by:Kevin O'Meara (Beatleboy52)
Email: floorcorn@hotmail.com

Intro:         

 {  RIFF 1                 }( RIFF 2              }
e|-----------------------------------------------------------|
B|---------0--------0-------------0-------0------------------|
G|------0--------0--------0-----0------0------0--------------| X2
D|---4--------4--------4-----2-------2------2----------------|
A|-----------------------------------------------------------|
E|-----------------------------------------------------------|

Continue Playing Intro during verses

RIFF 1                   RIFF 2  RIFF 1             RIFF 2

Ten o' clock in the evenin',         Can't get to sleep

RIFF 1               Riff 2  RIFF 1                       RIFF 2

Just can't stop thinking,     Maybe the fall is just too steep       

INTERLUDE:
[ Tab from: http://www.guitaretab.com/m/misc-unsigned-bands/175206.html ]
e|-------------------------------------------------------------------------3p2|
B|--------0------0-----------------0--------0-----------0------0---------1----|
G|-----0-------0----------------0--------0------------0-----0------0---2------|
D|--5--------4-------5---4---2--------0--------0-1-2------1------0---0--------|
A|----------------------------------------------------------------------------|
E|----------------------------------------------------------------------------|

RIFF 1                RIFF 2     RIFF 1           RIFF 2

7 o' clock in the mornin'        Can't get outta bed

RIFF 1               RIFF 2             RIFF 1              RIFF 2     

Just can't stop thinking       Too much goin' around in my head

Interlude X2

 
CHORUS:

   G          C         G                    C             G

       Is this love, for real?    Is this how love REAlly feels

       G        C                            D7          
       
       I don't know, cause' I've never been loved before

       
Verse 3:RIFF 1,  RIFF 2

       RIFF 1                         RIFF 2
       ?????????????{Insert your lyrics here}????????????????
    
       RIFF 1                         RIFF 2
       ?????????????{^^^^^^^^^^^^^^^^^^^^^^^^}???????????????

 CHORUS
   G          C         G                    C             G

       Is this love, for real?    Is this how love REAlly feels

       G        C                            D7                  C  
       
       I don't know, cause' I've never been loved before... Oh, oh  

^^^^^^^^^^^^^^^^^^^^^^REPEAT AD-LIB UNTIL FADE^^^^^^^^^^^^^^^^^^^


I sure hope someone can make heads or tails of this song :)
Related for Pigeons From Hell - Is This For Real tab
Advertisement will be closed in 10 seconds