Song name
# A B C D E F G H I J K L M N O P Q R S T U V W X Y Z

Misc Unsigned Bands - One Piece - Binks Sake tab

BINKS SAKE
TRIBUTE TO BROOK THE SKELETON ^^

My first tab :D

Plz rate it... FULL VERSION 100% CORRECT(probably)
by:MarduK




Intro   |   (Repeat Twice x)
----------------------------------|---------------------------------|
----------------------------------|---------------------------------|
----12-15-15-15--17-15-12-15------|----12-15-15-15--17-15-12--------|
----------------------------------|--------------------------13-----|
----------------------------------|---------------------------------|
----------------------------------|---------------------------------|
yohohoho.... yohohohooooooooooo... yohohoho.... yohohohooooooooooooo.

Main:
----------------------------------|---------------------------------|
----------------------------------|---------------------------------|
--15-12---------------------------|--15-12--------------------------|
--------15-13----13-15------------|--------15-13---13--------13-----|
--------------15------------------|--------------15---13--15----13--|
----------------------------------|---------------------------------|


----------------------------------|---------------------------------|
----------------------------------|---------------------------------|
----------------------------------|---------------------------------|
-----13-15-18-17-17-15-13-15------|---------------------------------|
--15------------------------------|---------------------------------|
----------------------------------|---------------------------------|


Tap to rate this tab
 
# A B C D E F G H I J K L M N O P Q R S T U V W X Y Z