Song name
# A B C D E F G H I J K L M N O P Q R S T U V W X Y Z

Misc Unsigned Bands - Scavengers - Routine tab

-------------------------------------------------------------------------------
			Routine - The Scavengers
-------------------------------------------------------------------------------
Tabbed by:Takumi Mc
Email:takumi_mc@windowslive.com

Tuning:Standard(EADGBe)

Intro:

e|----------------------------------------|
B|----------------------------------------|
G|11/13~---------1--6---1--8---1--6---1--8|
D|12/14~---------2--7---2--9---2--7---2--9|   
A|12/14~---------2--7---2--9---2--7---2--9|
E|10/12~---------0--5---0--7---0--5---0--7|
    
  B    D                A        B       A/B
e|-----------------------------------------------------------------|        
B|-----------------------------------------------------------------|  
G|8888-1313131313131313-88888888-888888886/88888888----------------|
D|9999-1212121212121212-77777777-999999997/99999999----------------|
A|9999-1212121212121212-77777777-999999997/99999999----------------|
E|7777-1010121010101212-55755575-777777775/77777777----------------|       
   x8        x2            x2

Verse:
  B                   D
e|------------------------------------------------------------|
B|------------------------------------------------------------|
G|888888888888888888881111111111111111111111111111111111111111|
D|999999999999999999991212121212121212121212121212121212121212|
A|999999999999999999991212121212121212121212121212121212121212|
E|777777777777777777771010101010101010101010101010101010101010|
 "Nine to five...."   "Weeks pass....."
 
  A                   B
e|------------------------------------------------------------|
B|------------------------------------------------------------|
G|6666666666666666666688888888888888888888--------------------|
D|7777777777777777777799999999999999999999--------------------|
A|7777777777777777777799999999999999999999--------------------|
E|5555555555555555555577777777777777777777--------------------|
 "But where have.."   "Nowhere - Nothing!"

Chorus:
  E D E C     E D E B
e|------------------------------------------------------------|
B|9-7-9-------9-7-9-------------------------------------------|
G|9-7-9-9-----9-7-9-8888--------------------------------------|
D|9-7-9-10----9-7-9-9999--------------------------------------|
A|7-5-7-10----7-5-7-9999--------------------------------------|
E|------8-----------7777--------------------------------------|
    x2           "Once is enough!"   

   Note: (On last chorus, end on just one B, Abruptly.)

Bridge:
  B      G   A       B
e|-----------------------|
B|-----------------------|
G|88888888444666-----8888|
D|99999999555777-----9999|
A|99999999555777-----9999|
E|77777777333555-----7777|
        x2            ^(After second time through)

Interlude: (Palm Muted through whole thing, apart from last 
            the last few strums)
 B                   D
e|------------------------------------------------------------|
B|------------------------------------------------------------|
G|888888888888888888881111111111111111111111111111111111111111|
D|999999999999999999991212121212121212121212121212121212121212|
A|999999999999999999991212121212121212121212121212121212121212|
E|777777777777777777771010101010101010101010101010101010101010|
  
  A                   B
e|------------------------------------------------------------|
B|------------------------------------------------------------|
G|6666666666666666666688888888888888888888--------------------|
D|7777777777777777777799999999999999999999--------------------|
A|7777777777777777777799999999999999999999--------------------|
E|5555555555555555555577777777777777777777--------------------|

Order:
      Intro
      Verse 
      Chorus
      Bridge
      Verse  x2
      Chorus    
      Bridge
      Interlude
      Verse
      Chorus x2


If you've got any questions, etc. just e-mail me.

Thanks, Takumi.





Tap to rate this tab
# A B C D E F G H I J K L M N O P Q R S T U V W X Y Z