Song name
# A B C D E F G H I J K L M N O P Q R S T U V W X Y Z

Misc Unsigned Bands - John Clarke - To Live tab

To Live, by John Clarke


Riff1:
----------------|
---0--0--0------|
--5-5--5--5-----|
-7---7--7--7----|   X2
8---------------|
----------------|

Riff 2:
----------------|
---0--0--0------|
--5-5--5--5-----|
-5---5--5--5----|   X2
3---------------|
----------------|

Riff 3:
-------------|
---0--0--0---|
--5-5--5--5--|
-7---7--7--7-|
8------------|
-------------|

-------------|
---0--6--0---|
--5-5--5--5--|
-7---7--7--7-|
8------------|
-------------|

Riff 4:
-------------|
---0--0--0---|
--5-5--5--5--|
-5---5--5--5-|
3------------|
-------------|

-------------|
---0--5--0---|
--5-5--5--5--|
-5---5--5--5-|
3------------|
-------------|

Riff4:
-------------|
---5--6--6---|
--5-5--5--5--|
-7---7--7--7-|
8------------|
-------------|

---------------|
---5--6--------|
--5-5--5-------|
-7---7--7------|
8--------7/8-5-|
---------------|


Riff 5:
-------------|
---3--5--5---|
--5-5--5--5--|
-5---5--5--5-|
3------------|
-------------|

----------------|
---3--5---------|
--5-5--5--------|
-5---5--5-------|
3---------3-5-7-|
----------------|

Riff 6:
------5------|
---5---6-5---|
--5-5---5-5--|
-7---7-----7-|
8------------|
-------------|

---------------|
---5--6--------|
--5-5--5-------|
-7---7--7------|
8--------7/8-5-|
---------------|

Riff 7:
------3------|
---3---5-3---|
--5-5---5-5--|
-5---5-----5-|
3------------|
-------------|

----------------|
---3--5---------|
--5-5--5--------|
-5---5--5--3-2--|
3---------3---3-|
----------------|

Riff 8:
---1-----1------------1-|
--3-3---3-3-----1-----1-|
-2---2-3---3---0-0---2--|
0-----3-----3-2---2-3---|
-------------3----------|
-------------------1----|

Riff 9:

x--1x--1x--1x--1x---x---x--1x--1-|
x--3x--3x--3x--3x--1x--1x--1x--1-|
x--2x--2x--3x--3x--0x--3x--2x--2-|
x-0-x-0-x-3-x-3-x--2x--2x--3x--3-|
x---x---x---x---x-3-x-3-x---x----|
x---x---x---x---x---x---x-1-x-1--|

Riff 10:

5~~~~~~~~~~~~~~~~~~~~~~~~~
--6-6-5--5------8-6-5-6---|
---7---7--6---6---------7-|
-7-----------7-7----------|
5-----------0-------------|
--------------------------|

Riff 11:

10~~~~~~~~~~~~~~~~~~~~
---10-----10-----11-10-|
-10--10-10--10-13------|
0------0---------------|
-----------------------|
-----------------------|

8~~~~~~~~~~~~~~~~~~~
---10----10-10-11-10-|
--9--9--9--9---------|
10----10-------------|
---------------------|
---------------------|

6~~~~~~~~
--8---8-8-|
-7-7-7-7--|
8---8-----|
----------|
----------|

5~~~~~~~~~
--5---5--8-|(let ring)
-6-6-6-6---|
7---7------|
-----------|
-----------|


Riff 12:

5~~~~~~~~~~~~~~~~~~~~~~~~~
--6-6-5--5------8-6-5-6---|
---7---7--6---6---------7-|
-7-----------7-7----------|
5-----------0-------------|
--------------------------|

5~~~~~~~~~~~~~~~~~~~~~~~~~
--6-6-5--5------8-6-5------|
---7---7--6---6--------6-7-|
-7-----------7-7-----------|
5-----------0--------------|
---------------------------|

Hope this helps,

Take care :)
Tap to rate this tab
 
# A B C D E F G H I J K L M N O P Q R S T U V W X Y Z