Song name
# A B C D E F G H I J K L M N O P Q R S T U V W X Y Z

Misc Unsigned Bands - Isaryce - Apocalyptic Nightmare tab

--------------------------------------------------------------------------|
--------------------------------------------------------------------------|
--------------------------------------------------------------------------|
-------------------------------3--2_________----------------------------0-|
-------3--2___________------1------------------------3--2_____----------0-|
-0--1--------------------0---------------------0--1------------0--1--3----|

----------------------------------------------|x4|
----------------------------------------------|x4|
-------------------------------------------1--|x4|
-1---------3---------1---------3---------1-1--|x4|
-1-0-0-0-0-3-0-0-0-0-1-0-0-0-0-3-0-0-0-0-1----|x4|
----------------------------------------------|x4|

----------------------|x2|
----------------------|x2|
----------------------|x2|
-1---------3-5-3------|x2|
-1-0-0-0-0-3-----4-3--|x2|
----------------------|x2|


----------------------------------------------|x4|
----------------------------------------------|x4|
-------------------------------------------1--|x4|
-1---------3---------1---------3---------1-1--|x4|
-1-0-0-0-0-3-0-0-0-0-1-0-0-0-0-3-0-0-0-0-1----|x4|
----------------------------------------------|x4|

------------------------------------|
------------------------------------|
------------------------------------|
------------------------------------|
-2-5-4-2--4-7-6-4--2-5-4-2--4-7-6-4-|
------------------------------------|


-------------------------------|----------------------------------------|x2|
-------------------------------|----------------------------------------|x2|
-------------------------------|---------9-8-6--------------------------|x2|
-------------------------------|---9-8-6-------9-8-6-8-9----------------|x2|
-8-11-10-8--6-9-8-6--8-11-10-8-|-6--------------------------------------|x2|
-------------------------------|----------------------------------------|x2|

--------------------------------------------------------------------------|
--------------------------------------------------------------------------|
--------------------------------------------------------------------------|
-------------------------------3--2_________----------------------------0-|
-------3--2___________------1------------------------3--2_____----------0-|
-0--1--------------------0---------------------0--1------------0--1--3----|

--------------------------------------------------------------------------|
--------------------------------------------------------------------------|
-----7-9-10-----5-7-8-----7-9-10-12-10-9-10-12-10-9-----------------------|
-0-0--------0-0-------0-0-------------------------------------------------|
-0-0--------0-0-------0-0-------------------------------------------------|
--------------------------------------------------------------------------|

--------------------------------------------------------------------------|
--------------------------------------------------------------------------|
--------------------------------------------------------------------------|
-10-12-10-13-10-12-10-13--12-14-12-15~-16-13-12-16-10---------------------|
--------------------------------------------------------------------------|
--------------------------------------------------------------------------|
        TAPPING
--------------------|8x|
--------------------|8x|
--------------------|8x|
-16-12-9-16-11-9/0--|8x|
-----------------0--|8x|
--------------------|8x|


----------------------|x2|
----------------------|x2|
----------------------|x2|
-1---------3-5-3------|x2|
-1-0-0-0-0-3-----4-3--|x2|
----------------------|x2|

----------------------------------------------|x4|
----------------------------------------------|x4|
-------------------------------------------1--|x4|
-1---------3---------1---------3---------1-1--|x4|
-1-0-0-0-0-3-0-0-0-0-1-0-0-0-0-3-0-0-0-0-1----|x4|
----------------------------------------------|x4|

------------------------------------------------------------------------0-|
------------------------------------------------------------------------0-|
------------------------------------------------------------------------0-|
-------------------------------3--2_________----------------------------2-|
-------3--2___________------1------------------------3--2_____----------2-|
-0--1--------------------0---------------------0--1------------0--1--3--0-|


Tap to rate this tab
# A B C D E F G H I J K L M N O P Q R S T U V W X Y Z