Song name
# A B C D E F G H I J K L M N O P Q R S T U V W X Y Z

Misc Unsigned Bands - Tommy Reilly - Gimme A Call tab

Help us improve GuitareTab! Take a short survey!
E|---1-------0---------0-------1
A|---3-------1---------1-------1
D|---2-------2---------0-------2
G|-0-----0---2---------2---2-3-3
B|---------0-0---0-2-3-3--3----3
E|---------------------0-------1

chorus

E|11111111-00000000-----------------------------------|
A|------------------00000000-------1111---------------|
D|---------------------------0000---------------------|
G|----------------------------------------------------|
B|----------------------------------------------------|
E|----------------------------------------------------|
Related for Tommy Reilly - Gimme A Call tab