Song name
# A B C D E F G H I J K L M N O P Q R S T U V W X Y Z

Misc Unsigned Bands - Alex Cline - Lyes The Reign tab

Chorus:
|----------|-------------|-------------|------------------|
|----------|-------------|-------------|------------------|
|----------|-------------|-------------|------------------|
|---------2|--2--3--2-0-2|--------0-(0)|----------3-0-(0)-|
|---------2|--2--3--2-0-2|--2-3-2-0-(0)|----------3-0-(0)-|
|-2-3-2-0-2|--2--3--2-0-2|--2-3-2-0-(0)|--2--3--2-3-0-(0)-|

                                First Riff:
|------------|-----------------|-----------------------------------|
|------------|-----------------|-----------------------------------|
|------------|-----------------|-----------------------------------|
|-1--5/1-2--0|-5/1-2/1--5p(0)-1|-----------------------------------|
|-1--5/1-2--0|-5/1-2/1--5p(0)-1|-1-------------------------------7*|
|-1--5/1-2--0|-5/1-2/1--5p(0)-1|---1-0-4-1-0-11111115555544444444--|
pm                                                           ....


|---------------------------------------|
|---------------------------------------|
|---------------------------------------|
|---------------------------------------|
|-1---------------------7777----6666----|
|---1-0-1111111144444444----5555----4444|


|-----------------------------------|
|-----------------------------------|
|-----------------------------------|
|-----------------------------------|
|-1-------------------------------7*|
|---1-0-4-1-0-11111115555544444444--|
pm                            ....


|-------------------------------------------------------|
|-------------------------------------------------------|
|-------------------------------------------------------|
|-------------------------------------------------------|
|-1---------------------7777----6666-------------000----|
|---1-0-1111111144444444----5555----4444-000-000-000-000|
pm                                       ... ... ... ...


Second Riff: (x3)
|------------------------------------------------------------|
|------------------------------------------------------------|
|------------------------------------------------------------|
|------------7-------------6-------------7--------8----------|
|--------5-8---8-------4-8---4-------5-8---8-7-10---7-5-8-5--|
|-000-000-------000-000-------000-000-----------------------8|
pm... ...       ... ...       ... ...

Chorus:
|----------|-------------|-------------|------------------|
|----------|-------------|-------------|------------------|
|----------|-------------|-------------|------------------|
|---------2|--2--3--2-0-2|--------0-(0)|----------3-0-(0)-|
|---------2|--2--3--2-0-2|--2-3-2-0-(0)|----------3-0-(0)-|
|-2-3-2-0-2|--2--3--2-0-2|--2-3-2-0-(0)|--2--3--2-3-0-(0)-|

|------------|-----------------|
|------------|-----------------|
|------------|-----------------|
|-1--5/1-2--0|-5/1-2/1--5p(0)-1|
|-1--5/1-2--0|-5/1-2/1--5p(0)-1|
|-1--5/1-2--0|-5/1-2/1--5p(0)-1|


Breakdown:
|-------------------------------------------------------------|
|-------------------------------------------------------------|
|-------------------------------------------------------------|
|-00--0-0-0-0--00--00-------------1--00--0-0-0-0--00--0-0-0-0-|
|-00--0-0-0-0--00--00-------------1--00--0-0-0-0--00--0-0-0-0-|
|-00--0-0-0-0--00--00-000-000-000-1--00--0-0-0-0--00--0-0-0-0-|
pm..  . . . .  ..  .. ... ... ...    ..  . . . .  ..  . . . .

Second Riff:
|------------------------------------------------------------|
|------------------------------------------------------------|
|------------------------------------------------------------|
|------------7-------------6-------------7--------8----------|
|--------5-8---8-------4-8---4-------5-8---8-7-10---7-5-8-5--|
|-000-000-------000-000-------000-000-----------------------8|
pm... ...       ... ...       ... ...


Bridge: (x4)Guitar 1 only              (x1)
|-------------------------------------|--------------------------------------|
|-------------------------------------|--------------------------------------|
|-------------------------------------|--------------------------------------|
|-------------------------------------|--------------------------------------|
|----1h4---1h4---1h4---1h4---2h5---2h5|----1h4---1h4---1h4---1h4---5h8---4h7-|
|-1h4---1h4---1h4---1h4---2h5---2h5---|-1h4---1h4---1h4---1h4---5h8---4h7----|
|
|
|Guitar 2
|---------------------------------------------------------------------|
|---------------------------------------------------------------------|
|-77771010101088881212121277771010101088885555777710101010888811111111|
|---------------------------------------------------------------------|
|---------------------------------------------------------------------|
|---------------------------------------------------------------------|
 Guitar 2
|---------------------|
|---------------------|
|-77771010101088886666|
|---------------------|
|---------------------|
|---------------------|
Tap to rate this tab
# A B C D E F G H I J K L M N O P Q R S T U V W X Y Z