Song name
# A B C D E F G H I J K L M N O P Q R S T U V W X Y Z

Misc Unsigned Bands - Bruno Simonsen - Cacharro tab

e--0----|--------------------------0----|---------0-1-0-------0-|-0-1-0-4-1-0-|
B-----3-|-1-0----0-------1------------3-|-1-0---3-----------4---|-------------|
G-------|-----2----2-1-2-2--------------|-----2---------0-------|-1-----------|
D-------|-------------------------------|---------------2-------|-------0-----|
A-------|-0------------0------0---------|-0-----3-----3---3-----|-------------|
E-------|--------0----------0-----------|-----------------------|-0-----------|

e-5-----1---1--0-1-0-------|-------------0----|----------------------0----|
B-----0---3----------3-1-0-|-1p0------------3-|-1-0---0-------1---------3-|
G---5---2------1-----1-----|-----2------------|-----2---2-1-2-2-----------|
D-3-----0------------------|------------------|---------------------------|
A--------------------------|-0-------0--------|-0-----------0-----0-------|
E--------------0-----0-----|-------0----------|-------0---------0---------|

e--0----|---------0-1-0-------0-|-0-1-0-4-1-0-|-5-----1---1--0-1-0-------|
B-----3-|-1-0---3-----------4---|-------------|-----0---3----------3-1-0-|
G-------|-----2---------0-------|-1-----------|---5---2------1-----1-----|
D-------|---------------2-------|-------0-----|-3-----0------------------|
A-------|-0-----3-----3---3-----|-------------|--------------------------|
E-------|-----------------------|-0-----------|--------------------0-----|

e-------------5-5-|-5---0--1-0---0------------------|-------0-----5-5-|
B-1p0-------------|-6------3---3-2---0--1-0---3-1-0-|-0-1-3---1-------|
G-----2-----------|---7------------2----2---2-1-----|-1-------2-------|
D-----------------|-0------0-----0------------------|-----------------|
A-0-------0-------|---------------------0-----------|-------0---0-----|
E-------0---------|---------------------------0-----|-0---------------|

e-5---0-1-0----0------------------0-1-0-|---0---5-|
B-6-----3---3--1---0--1-0---3-1-0-------|---1---5-|
G---7------------2----2---2-1-----1-----|-2-2---5-|
D-0-----0-------------------------------|---------|
A--------------0------0-----------------|-0-----0-|
E---------------------------0-----0-----|-----0---|
Tap to rate this tab
# A B C D E F G H I J K L M N O P Q R S T U V W X Y Z