Song name
# A B C D E F G H I J K L M N O P Q R S T U V W X Y Z

Misc Unsigned Bands - Ambeon - Ashes tab

Song: Ashes
Artist: Ambeon
Album: Fate of a Dreamer
Tuning: Drop D

Intro
|----------------------------------------------------------| 
|----------------------------------------------------------|
|----------------------------------------------------------|
|----------------------------------------------------------| 
|----------------------------------------------------------|
|-0~-------------------------------------------------------|

Guitar Kicks In
2x
|----------------------------------------------------------| 
|----------------------------------------------------------|
|----------------------------------------------------------|
|-0-0------------0-0------------5-5------------5-5---------| 
|-0-0------------0-0------------5-5------------5-5---------|
|-0-0------------0-0------------5-5------------5-5---------|
  - -            - -            - -            - -

Verse


Chorus 
3x
|-------------------------------------------------| 
|-------------------------------------------------|
|-------------------------------------------------|
|-2-2---------------------2-2---------------------| 
|-2-2---------------------2-2---------------------|
|-2-2-2-2-2-2-2-2-2-2-2-2-2-2-2-2-2-2-2-2-2-2-2-2-|
  - - - - - - - - - - - - - - - - - - - - - - - - 
      “Burn to Ashes..”

Then
|------------------------------------------------------| 
|------------------------------------------------------|
|---------------------------5------5-5--5--5----5------|
|-2-2-----------------------5------5-5--5--5----5-0-0--| 
|-2-2---------------------3-3------3-3--3--3----3-0-0--|
|-2-2-2-2-2-2-2-2-2-2-2-2-------------------------0-0--|
  - - - - - - - - - - - - -                       - -


Solo
|-/13~-------12-13p12p10-----------------------------------------------| 
|------------------------10~--------8-10-11~--------10-9x--------------|
|---------------------------------------------------------9-10-7~------|
|----------------------------------------------------------------------| 
|----------------------------------------------------------------------|
|----------------------------------------------------------------------|

|----------------------22~-------20~----20-22-17~---------18---18-20-18-17-15--| 
|----------------15-18---------------------------------------------------------|
|-------------14---------------------------------------------------------------|
|-------12-15------------------------------------------------------------------| 
|----12------------------------------------------------------------------------|
|-12---------------------------------------------------------------------------|

|-15/17\15-13-12----------------------------------------------------| 
|----------------15p13p12-------------------------------------------|
|-------------------------13p12p10----------------------------------|
|----------------------------------13p12p10-------------------------| 
|-------------------------------------------13p12p10-12~---13-------|
|-------------------------------------------------------------12\---|


Repeat Verse
Repeat Chorus


Solo II 
|-------------------------------------------------------------------------------| 
|-------------------------------/18~--------17--18p17---------------------------|
|-/14~--------16---17-14~-----------------------------14~---15-14~---12---------|
|-------------------------------------------------------------------------------| 
|-------------------------------------------------------------------------------|
|-------------------------------------------------------------------------------|

|-----------------------------------------------------------15----17-14~--------| 
|---------------------------------------------15----17--18----------------------|
|-10--12--14~-------------------------------------------------------------------|
|-------------------12----15-14----12-12v---------------------------------------| 
|-------------------------------------------------------------------------------|
|-------------------------------------------------------------------------------|


Bridge


Fade into Chorus
|---------------| 
|---------------|
|-~~5\----------|
|-~~5\----------| 
|-~~3\----0-1-2-|
|---------0-1-2-|
          - - -

Chorus II
2x
|------------------------------------------------| 
|------------------------------------------------|
|------------------------------------------------|
|------------------------------------------------| 
|-2-2---2-2---2-2---2-2---2-2---2-2---2-2---2-2--|
|-2-2---2-2---2-2---2-2---2-2---2-2---2-2---2-2--|
  - -   - -   - -   - -   - -   - -   - -   - - 

|------------------------------------------------| 
|------------------------------------------------|
|------------------------------------------------|
|------------------------------------------------| 
|-2-2---2-2---2-2---2-2---2-2---2-2---2-2-0-1-2--|
|-2-2---2-2---2-2---2-2---2-2---2-2---2-2-0-1-2--|
  - -   - -   - -   - -   - -   - -   - - - - -

After the Second Time
|-------------------| 
|-------------------|
|-------------------|
|-------------------| 
|-3-2-3-2-3-2-0-1-2-|
|-3-2-3-2-3-2-0-1-2-|
  - - - - - - - - -

Repeat Chorus II

Then at 4:46 switch too
|-----------------------------------| 
|-----------------------------------|
|-----------------------------------|
|-5-5---5-5---5-5---5-5-------------| 
|-3-3---3-3---3-3---3-3---3-3-3\----|
|-----------------------------------|
  - -   - -   - -   - -

And there you go

Key
---
- = Palm Mute
V = vibrato
/ = slide up
\ = slide down
x = mute note

http://www.ayreon.com/ambeon/am_index.html
here the link to their website...
Tap to rate this tab
# A B C D E F G H I J K L M N O P Q R S T U V W X Y Z