Song name
# A B C D E F G H I J K L M N O P Q R S T U V W X Y Z

Misc Unsigned Bands - Angels Or Vultures - Our Scars On Earth tab

Help us improve GuitareTab! Take a short survey!
#----------------------------------PLEASE NOTE---------------------------------#
#This file is the author's own work and represents their interpretation of the #
#song. You may only use this file for private study, scholarship, or research. #
#------------------------------------------------------------------------------#

OUR SCARS ON EARTH
As recorded by Angels Or Vultures
(From the 2009 EP QUIXOTICALLY YOURS)

***** www.myspace.com/angelsorvultures *****

Transcribed by Jonathan Roseboom
	

Words and Music by Jonathan Roseboom
Arranged by Jonathan Roseboom

*To use my own "octave" A tuning:
 from standard tuning, drop your 6th string (E) down to an octave lower than the 5th (A)*

Gtr I (A A D G B E) - 'Guitar I'
Gtr II (A A D G B E) - 'Guitar II'
Gtr III (A A D G B E) - 'Guitar III'

 "Let's cut ourselves with.."
  Noise Q=131
  A                 Bb
 4/4
  Gtr I
  W                 W
|-----------------|-----------------|
|-----------------|-----------------|
|-----------------|-----------------|
|-----------------|-----------------|
|-----------------|-----------------|
|-----------------|-----------------|
|
| Gtr II
| E E E E E E E E   E E E E E E E E
|-----------------|-----------------|
|-----------------|-----------------|
|-----------------|-----------------|
|-----------------|-----------------|
|-0-0-0-0-0-0-0-0-|-1-1-1-1-1-1-1-1-|
|-0-0-0-0-0-0-0-0-|-0-0-0-0-0-0-0-0-|


  F                 Em               E
  W                  H.               Q   a
|-----------------|--------------------------|
|-----------------|--------------------------|
|-----------------|--------------------------|
|-----------------|--------------------------|
|-----------------|------------------12s==0--|
|-----------------|------------------12s==0--|
|
| E E E E E E E E    E   E  E  E E E  E E
|-----------------|--------------------------|
|-----------------|--------------------------|
|-----------------|--------------------------|
|-----------------|--------------------------|
|-8-8-8-8-8-8-8-8-|-10--10-10-10-7-7--7-7----|
|-8-8-8-8-8-8-8-8-|--7---7--7--7-7-7--7-7----|


  A                         Bb
   E  E  E  E  E  E  E  E    E  E  E  E  E  E  E  E
|--0--0--0--0--0--0--7--7-|--0--0--0--0--0--0--8--8-|
|-10-10-10-10-10-10-10-10-|-11-11-11-11-11-11-11-11-|
|-------------------------|-------------------------|
|-------------------------|-------------------------|
|-------------------------|-------------------------|
|-------------------------|-------------------------|
|
|  E  E  E  E  E  E  E  E    E  E  E  E  E  E  E  E
|-------------------------|-------------------------|
|-------------------------|-------------------------|
|-------------------------|-------------------------|
|-------------------------|-------------------------|
|--0--0--0--0--0--0--0--0-|--1--1--1--1--1--1--1--1-|
|--0--0--0--0--0--0--0--0-|--0--0--0--0--0--0--0--0-|


  F                 Em          E
  E E E E E E E E    E  E  E  E E E E E
|-0-0-0-0-0-0-5-5-|--0--0--0--0-4-4-4-4-|
|-8-8-8-8-8-8-8-8-|--6--6--6--6-6-6-6-6-|
|-----------------|---------------------|
|-----------------|---------------------|
|-----------------|---------------------|
|-----------------|---------------------|
|
| E E E E E E E E    E  E  E  E E E E E
|-----------------|---------------------|
|-----------------|---------------------|
|-----------------|---------------------|
|-----------------|---------------------|
|-8-8-8-8-8-8-8-8-|-10-10-10-10-7-7-7-7-|
|-8-8-8-8-8-8-8-8-|--7--7--7--7-7-7-7-7-|


  A                          Bb
  Gtr I
   E  E  E  E   E  E  E  E     E   E  E  E  E  E  E  E
|--0--0--0--0---0--0--7--7-|---0---0--0--0--0--0--8--8-|
|-10-10-10-10--10-10-10-10-|--11--11-11-11-11-11-11-11-|
|--------------------------|---------------------------|
|--------------------------|---------------------------|
|--------------------------|---------------------------|
|--------------------------|---------------------------|
|
| Gtr II
|  E  E  E  E   E  E  E  E     E   E  E  E  E  E  E  E
|--------------------------|---------------------------|
|--------------------------|---------------------------|
|--------------------------|---------------------------|
|--------------------------|---------------------------|
|--0--0--0--0---0--0--0--0-|---1---1--1--1--1--1--1--1-|
|--0--0--0--0---0--0--0--0-|---0---0--0--0--0--0--0--0-|
|
| Gtr III
|  Q     Q      Q     Q       +H            H
|--------------------------|----------------8----------|
|-------------/11----10----|-(10)----------------------|
|--7-----8-----------------|---------------------------|
|--------------------------|---------------------------|
|--------------------------|---------------------------|
|--------------------------|---------------------------|


  F                  Em          E
   E E E E E E E E    E  E  E  E  E  E  E  E
|--0-0-0-0-0-0-5-5-|--0--0--0--0-12-12-12-12-||
|--8-8-8-8-8-8-8-8-|-17-17-17-17-16-16-16-16-||
|------------------|-------------------------||
|------------------|-------------------------||
|------------------|-------------------------||
|------------------|-------------------------||
|
|  E E E E E E E E    E  E  E  E  E  E  E  E
|------------------|-------------------------||
|------------------|-------------------------||
|------------------|-------------------------||
|------------------|-------------------------||
|--8-8-8-8-8-8-8-8-|-10-10-10-10--7--7--7--7-||
|--8-8-8-8-8-8-8-8-|--7--7--7--7--7--7--7--7-||
|
|  W                  W
|-10---------------|-11----------------------||
|------------------|-------------------------||
|------------------|-------------------------||
|------------------|-------------------------||
|------------------|-------------------------||
|------------------|-------------------------||


 "Make your mark.."
  Faster Q=141
  N.C.
  Gtrs I, II
  PM------------------------------------------------------------
  S S S S E E S S S S E E     S  S   S   S E E S S S S S S S S
|-------------------------|------------------------------------|
|-------------------------|------------------------------------|
|-------------------------|------------------------------------|
|-------------------------|------------------------------------|
|-0-0-0-0-0-0-0-0-0-0-0-0-|---0--0---0---0-0-0-0-0-0-0-0-0-0-0-|
|-1-1-1-1-1-1-1-1-1-1-1-1-|---1--1---1---1-1-1-1-1-1-1-1-1-1-1-|
|
| Gtr III
| W                           E      H..
|-------------------------|-(18)-------------------------------|
|-------------------------|--------(22)------------------------|
|-------------------------|------------------------------------|
|-------------------------|------------------------------------|
|-------------------------|------------------------------------|
|-------------------------|------------------------------------|


 -------------------------------------------------------------|
   S S  S   S E E S S S S E E    S S  S   S E E S S S S S S S S
|-----------------------------|------------------------------------|
|-----------------------------|------------------------------------|
|-----------------------------|------------------------------------|
|-----------------------------|------------------------------------|
|--0-0--0---0-0-0-0-0-0-0-0-0-|--0-0--0---0-0-0-0-0-0-0-0-0-0-0----|
|--1-1--1---1-1-1-1-1-1-1-1-1-|--1-1--1---1-1-1-1-1-1-1-1-1-1-1----|
|
|  E    H..                      E    H..
|-18--------------------------|-18---------------------------------|
|------22---------------------|------22----------------------------|
|-----------------------------|------------------------------------|
|-----------------------------|------------------------------------|
|-----------------------------|------------------------------------|
|-----------------------------|------------------------------------|


  PM----------------------------------------------------
  E S S  S S E E S S  S S E   E S S  S S E E S S  E  E
|---------------------------|--------------------------|
|---------------------------|--------------------------|
|---------------------------|--------------------------|
|---------------------------|--------------------------|
|-0-0-0--0-0-0-0-0-0--0-0-0-|-0-0-0--0-0-0-0-0-0--0--0-|
|-1-1-1--1-1-1-1-1-1--1-1-1-|-1-1-1--1-1-1-1-1-1--1--1-|
|
| PM|          PM|            PM|          PM|
| E E    Q     E E    Q       E E    Q     E E    E  E
|-------18-----------18-----|-------18-----------18----|
|-------22-----------22-----|-------22--------------22-|
|---------------------------|--------------------------|
|---------------------------|--------------------------|
|-0-0----------0-0----------|-0-0----------0-0---------|
|-0-0----------0-0----------|-0-0----------0-0---------|


 -------------------------------------------------------------------------|
  S S S S  S S S S S S S S  S S S S   S S S S  S S S S S S S S  S S   S   S
|-----------------------------------|----------------------------------------||
|-----------------------------------|----------------------------------------||
|-----------------------------------|----------------------------------------||
|-----------------------------------|----------------------------------------||
|-0-0-0-0--0-0-0-0-0-0-0-0--0-0-0-0-|-0-0-0-0--0-0-0-0-0-0-0-0--0-0---0---0--||
|-1-1-1-1--1-1-1-1-1-1-1-1--1-1-1-1-|-1-1-1-1--1-1-1-1-1-1-1-1--1-1---1---1--||
|
| PM--|            PM--|              PM--|            PM--|
| E   E    Q       E   E    Q         E   E    Q       E   E    E    +E
|---------18---------------18-------|---------18---------------18---(18)\----||
|---------22---------------22-------|---------22---------------22---(22)\----||
|-----------------------------------|----------------------------------------||
|-----------------------------------|----------------------------------------||
|-0---0------------0---0------------|-0---0------------0---0-----------------||
|-0---0------------0---0------------|-0---0------------0---0-----------------||


 "Haha this jacket's not.."
  A   N.C.    A               N.C.    (Bmaj1A/Bb)
  Gtr I
  PM          PM------------|
  E E E E E E S S S S    E  E E E E E E E
|-------0-4p0---------|-----------------0-|
|-----6---------------|-----------------0-|
|---------------------|---------3p2-----3-|
|---------------------|---------------1---|
|-0-----------0-0-0-0-|--0--0-4-----3-1---|
|-0-----------0-0-0-0-|--0--0---------1---|
|
| Gtr II
| W                     +H        H
|---------------------|-------------------|
|---------------------|-------------------|
|-7-------------------|-(7)-------3-------|
|---------------------|-------------------|
|-5-------------------|-(5)-------1-------|
|---------------------|-------------------|


              A               N.C.DmC#CmBm
  PM|         PM------------|     PM----|
  E E E E E E S S S S    E  E E E E E E E
|-------0-4p0---------|-------------------|
|-----6---------------|-------------------|
|---------------------|-------------------|
|---------------------|---------0-3-2-1-0-|
|-0-0---------0-0-0-0-|--0--0-4---5-4-3-2-|
|-0-0---------0-0-0-0-|--0--0-------------|
|
| W                     +H        H
|---------------------|-------------------|
|---------------------|-------------------|
|-4-------------------|-(4)-------6-------|
|-0-------------------|-(0)---------------|
|---------------------|-------------------|
|---------------------|-------------------|


  A   N.C.    A               N.C.    (Bmaj1A/BbN.C.
  PM|         PM------------|
  E E E E E E S S S S    E  E E E E E E E
|-------0-4p0---------|-----------------0-|
|-----6---------------|-----------------0-|
|---------------------|---------3p2-----3-|
|---------------------|---------------1---|
|-0-0---------0-0-0-0-|--0--0-4-----3-1---|
|-0-0---------0-0-0-0-|--0--0---------1---|
|
| W                     +H        H
|---------------------|-------------------|
|---------------------|-------------------|
|-7-------------------|-(7)-------3-------|
|---------------------|-------------------|
|-5-------------------|-(5)-------1-------|
|---------------------|-------------------|


              A               N.C.DmC#CmBm
  PM|         PM------------|     PM----|
  E E E E E E S S S S    E  E E E E E E E
|-------0-4p0---------|-------------------|
|-----6---------------|-------------------|
|---------------------|-------------------|
|---------------------|---------0-3-2-1-0-|
|-0-0---------0-0-0-0-|--0--0-4---5-4-3-2-|
|-0-0---------0-0-0-0-|--0--0-------------|
|
| W                     +H        H
|---------------------|-------------------|
|---------------------|-------------------|
|-4-------------------|-(4)-------6-------|
|-0-------------------|-(0)---------------|
|---------------------|-------------------|
|---------------------|-------------------|


  A   N.C.    A             N.C.    (Bmaj11ABb)N.C.
  Gtr I
  PM|         PM----------|
  E E E E E E S S S S   E E E E E E  E E
|-------0-4p0---------|----------------0-|
|-----6---------------|----------------0-|
|---------------------|-------3p2------3-|
|---------------------|--------------1---|
|-0-0---------0-0-0-0-|-0-0-4-----3--1---|
|-0-0---------0-0-0-0-|-0-0----------1---|
|
| Gtr II
| PM|   PM----------------|
| E E E E E E S S S S   E E Q   Q    Q
|---------------------|------------------|
|---------------------|-----6---3---13---|
|---------------------|-----9---6---16---|
|---------------------|------------------|
|-0-0---0---0-0-0-0-0-|-0-0--------------|
|-0-0---0---0-0-0-0-0-|-0-0--------------|
|
| Gtr III
| H       H             H       H
|---------------------|------------------|
|-6-------------------|-6----------------|
|---------9-----------|---------9--------|
|---------------------|------------------|
|---------------------|------------------|
|---------------------|------------------|


              A             N.C.DmC#CmBm
  PM|         PM----------|     PM----|
  E E E E E E S S S S   E E E E E E E E
|-------0-4p0---------|-----------------|
|-----6---------------|-----------------|
|---------------------|-----------------|
|---------------------|-------0-3-2-1-0-|
|-0-0---------0-0-0-0-|-0-0-4---5-4-3-2-|
|-0-0---------0-0-0-0-|-0-0-------------|
|
| PM|   PM----------------|
| E E E E E E S S S S   E E Q   E E E E
|---------------------|-----------------|
|---------------------|-----6-----------|
|---------------------|-----9-----------|
|---------------------|-----------------|
|-0-0---0---0-0-0-0-0-|-0-0-----8-7-6-5-|
|-0-0---0---0-0-0-0-0-|-0-0-----8-7-6-5-|
|
| H       H             H       H
|---------------------|-----------------|
|-6-------------------|-6---------------|
|---------9-----------|---------9-------|
|---------------------|-----------------|
|---------------------|-----------------|
|---------------------|-----------------|


  A   N.C.    A             N.C.      (Bmaj11/Bb)A
  PM|         PM----------|
  E E E E E E S S S S   E E E E E  E    E  E
|-------0-4p0---------|--------------------0---|
|-----6---------------|--------------------0---|
|---------------------|-------3p2----------3---|
|---------------------|-----------------1------|
|-0-0---------0-0-0-0-|-0-0-4------3----1------|
|-0-0---------0-0-0-0-|-0-0-------------1------|
|
| PM------------------------------|
| E Q   Q   E S S S S   E H       +E    Q    a
|---------------------|------------------------|
|---------------------|------------------------|
|---------------------|------------------------|
|---------------------|------------------------|
|-0-0---0---0-0-0-0-0-|-0-0-------(0)--12s===0-|
|-0-0---0---0-0-0-0-0-|-0-0-------(0)--12s===0-|
|
| H       H             H       Q       Q
|---------------------|---------------(11)-----|
|-6-------------------|-6----------------------|
|---------9-----------|---------9--------------|
|---------------------|------------------------|
|---------------------|------------------------|
|---------------------|------------------------|


      N.C.    A             N.C.DmC#CmBm
  PM|         PM----------|     PM----|
  E E E E E E S S S S   E E E E E E E E
|-------0-4p0---------|------------------||
|-----6---------------|------------------||
|---------------------|------------------||
|---------------------|-------0-3-2-1-0--||
|-0-0---------0-0-0-0-|-0-0-4---5-4-3-2--||
|-0-0---------0-0-0-0-|-0-0--------------||
|
| PM----------------------|
| E Q   Q   E S S S S   E E Q   E E E E
|---------------------|------------------||
|---------------------|-----6------------||
|---------------------|-----9------------||
|---------------------|------------------||
|-0-0---0---0-0-0-0-0-|-0-0-----8-7-6-5--||
|-0-0---0---0-0-0-0-0-|-0-0-----8-7-6-5--||
|
|                       >
| H       H             W
|---------------------|------------------||
|-6-------------------|-6----------------||
|---------9-----------|-9----------------||
|---------------------|------------------||
|---------------------|------------------||
|---------------------|------------------||


   "Operator let me through.."
    Slower Q=131
    F/A               Asus4  A5                Bb
    Gtr II
    W          +H     H      W          +H     H
||-----------|-------------|----------|--------------||
||o----------|-------------|----------|-------------o||
||-----------|-------------|----------|--------------||
||--3--------|-(3)----0----|-2--------|-(2)----------||
||o-0--------|-(0)----0----|-0--------|-(0)----1----o||
||--0--------|-(0)----0----|-0--------|-(0)----1-----||


  F/A                      Asus4   A5                       Bb
  Gtr I
   Q  Q   Q   Q     +H      H       Q  Q   Q   Q     +H      H
|-----0-------4--|--(4)-----5----|-----0-------0--|--(0)-----0----|
|--6------6---6--|--(6)-----6----|-10-----10--13--|-(13)----12----|
|----------------|---------------|----------------|---------------|
|----------------|---------------|----------------|---------------|
|----------------|---------------|----------------|---------------|
|----------------|---------------|----------------|---------------|
|
| Gtr II
|  W                +H      H       W                +H      H
|----------------|---------------|----------------|---------------|
|----------------|---------------|----------------|---------------|
|----------------|---------------|----------------|---------------|
|--3-------------|--(3)-----0----|--2-------------|--(2)----------|
|--0-------------|--(0)-----0----|--0-------------|--(0)-----1----|
|--0-------------|--(0)-----0----|--0-------------|--(0)-----1----|
|
| Gtr III
|  Q  Q   Q   Q     +H      H       W                 H      H
|-10--8--10------|---------------|----------------|---------------|
|------------12--|-(12)----13----|-10-------------|--12-----10----|
|----------------|---------------|----------------|---------------|
|----------------|---------------|----------------|---------------|
|----------------|---------------|----------------|---------------|
|----------------|---------------|----------------|---------------|


  F/A                       Asus4   A5                        Bb
   Q   Q   Q   Q     +H      H       Q   Q   Q   Q     +H      H
|------0-------4--|--(4)-----5----|------0-------0--|--(0)-----0----||
|--6-------6---6--|--(6)-----6----|-10------10--13--|-(13)----12----||
|-----------------|---------------|-----------------|---------------||
|-----------------|---------------|-----------------|---------------||
|-----------------|---------------|-----------------|---------------||
|-----------------|---------------|-----------------|---------------||
|
|  W                 +H      H       W                 +H      H
|-----------------|---------------|-----------------|---------------||
|-----------------|---------------|-----------------|---------------||
|-----------------|---------------|-----------------|---------------||
|--3--------------|--(3)-----0----|--2--------------|--(2)----------||
|--0--------------|--(0)-----0----|--0--------------|--(0)-----1----||
|--0--------------|--(0)-----0----|--0--------------|--(0)-----1----||
|
|  Q   Q   Q   Q     +H      H       H.          Q     +H      H
|-----15----------|---------------|--------------8--|--(8)-----7----||
|-13------13--12--|-(12)----13----|-10--------------|---------------||
|-----------------|---------------|-----------------|---------------||
|-----------------|---------------|-----------------|---------------||
|-----------------|---------------|-----------------|---------------||
|-----------------|---------------|-----------------|---------------||


   "Disconnect.."
    Faster Q=141
    A   N.C.
    Gtr II
    PM|
                                        |-3-|
    E E E E E E E E   +E  E E E S S S S S S S S S
||------------------|-----------------------------|
||o-----------------|-----------------------------|
||------------------|-----------7-----------------|
||------------------|-------------8p7h8-7h8p7-----|
||o-0-0-8-8-8-5-5-7-|-(7)-7-7-7---------------8p7-|
||--0-0-------------|-----------------------------|
|
|   Gtrs I, III
|     PM  PM  PM  PM      PM  PM    PM        PM
|   E E E E E E E E    E  E E E E   E   E     E
||------------------|-----------------------------|
||o-----------------|-----------------------------|
||------------------|-----------------------------|
||------------------|-----------------------------|
||o-8---8---8---8---|--8----8---5-------5---------|
||----0---0---0---0-|-----0---0-----0---------0---|


  A   N.C.                    (Bm/maj7/Bb)
  PM|
  E E E E E E E E   +E  E E E E E E E
|-----------------|--------------------||
|-----------------|-----------0-------o||
|-----------------|-------------3------||
|-----------------|---------------0----||
|-0-0-1-1-1-4-4-0-|-(0)-0-0-0-------1-o||
|-0-0-------------|--------------------||
|
|   PM  PM  PM  PM      PM  PM  PM  PM
| E E E E E E E E    E  E E E E E E E
|-----------------|--------------------||
|-----------------|-------------------o||
|-----------------|--------------------||
|-----------------|--------------------||
|-7---7---7---7---|--7----7---4---4---o||
|---0---0---0---0-|-----0---0---0---0--||


 "I never told you why.."
  E                                     Eb
  Gtr III
  PM|                PM|                PM|                PM|
  E E H.             E E H.             E E H.             E E H.
|------------------|------------------|------------------|------------------|
|------------------|------------------|------------------|------------------|
|------------------|------------------|------------------|------------------|
|------------------|------------------|------------------|------------------|
|-1-1--------------|-1-1--------------|-0-0--------------|-0-0--------------|
|-1-1--------------|-1-1--------------|-0-0--------------|-0-0--------------|
|
| Gtrs I, II
| E E E  E E E E E   E E E  E E E E E   E E E  E E E E E   E E E  E E E E E
|------------------|------------------|------------------|------------------|
|------------------|------------------|------------------|------------------|
|------------------|------------------|------------------|------------------|
|------------------|------------------|------------------|------------------|
|-7-7-7--7-7-7-7-7-|-7-7-7--7-7-7-7-7-|-6-6-6--6-6-6-6-6-|-6-6-6--6-6-6-6-6-|
|-7-7-7--7-7-7-7-7-|-7-7-7--7-7-7-7-7-|-6-6-6--6-6-6-6-6-|-6-6-6--6-6-6-6-6-|


  Bb                                        C#
  PM--------------------------------------------------------------|
  E E Q   E Q   E   E E E Q   S S S S S S   E E Q   E Q   E   E E E H       E
|-----------------|-----------------------|-----------------|------------------|
|-----------------|-----------------------|-----------------|------------------|
|-----------------|-----------------------|-----------------|------------------|
|-----------------|-----------------------|-----------------|------------------|
|-0-0-----0-----0-|---0-0-----0-0-0-0-0-0-|-0-0-----0-----0-|---0-0------------|
|-0-0-----0-----0-|---0-0-----0-0-0-0-0-0-|-0-0-----0-----0-|---0-0------------|
|
| E E E E E E E E   E E E E E E   E   E     E E E E E E E E   E E E E E E E E
|-----------------|-----------------------|-----------------|------------------|
|-----------------|-----------------------|-----------------|------------------|
|-----------------|-----------------------|-----------------|------------------|
|-----------------|-----------------------|-----------------|------------------|
|-1-1-1-1-1-1-1-1-|-1-1-1-1-1-1---1---1---|-4-4-4-4-4-4-4-4-|-4-4-4-4-4-4-4-4--|
|-1-1-1-1-1-1-1-1-|-1-1-1-1-1-1---1---1---|-4-4-4-4-4-4-4-4-|-4-4-4-4-4-4-4-4--|


  E                                         Eb
  Gtr III
  PM------------------------------------------------------------------------|
  E E Q   E Q   E   E E E Q   S S S S S S   E E Q   E Q   E   E E E Q   E E E
|-----------------|-----------------------|-----------------|------------------|
|-----------------|-----------------------|-----------------|------------------|
|-----------------|-----------------------|-----------------|------------------|
|-----------------|-----------------------|-----------------|------------------|
|-1-1-----1-----1-|---1-1-----1-1-1-1-1-1-|-0-0-----0-----0-|---0-0-----0-0-0--|
|-1-1-----1-----1-|---1-1-----1-1-1-1-1-1-|-0-0-----0-----0-|---0-0-----0-0-0--|
|
| Gtr II
| PM        PM  PM--|         PM      PM----|         PM  PM--|         PM  PM
| E E E E E E E E   E E E E E E   E   E     E E E E E E E E   E E E E E E E E
|-----------------|-----------------------|-----------------|------------------|
|-----------------|-----------------------|-----------------|------------------|
|---------7---8---|---------7-----8-------|---------7---8---|---------7---8----|
|---6-5-6---6---7-|---6-5-6---6-------7---|---6-5-6---6---7-|---6-5-6---6---7--|
|-5---------------|-5---------------------|-5---------------|-5----------------|
|-----------------|-----------------------|-----------------|------------------|
|
| Gtr I
| E E E E E E E E   E E E E E E   E   E     E E E E E E E E   E E E E E E E E
|-----------------|-----------------------|-----------------|------------------|
|-----------------|-----------------------|-----------------|------------------|
|-----------------|-----------------------|-----------------|------------------|
|-----------------|-----------------------|-----------------|------------------|
|-7-7-7-7-7-7-7-7-|-7-7-7-7-7-7---7---7---|-6-6-6-6-6-6-6-6-|-6-6-6-6-6-6-6-6--|
|-7-7-7-7-7-7-7-7-|-7-7-7-7-7-7---7---7---|-6-6-6-6-6-6-6-6-|-6-6-6-6-6-6-6-6--|


  Bb                                    C#                        N.C.
  PM----------------------------------------------------------|
  E E Q   E Q.       E E Q   E Q.       E E Q   E E E E   E E Q    H
|------------------|------------------|-----------------|---------<4>----||
|------------------|------------------|-----------------|---------<4>----||
|------------------|------------------|-----------------|---------<4>----||
|------------------|------------------|-----------------|---------<4>----||
|-0-0-----0--------|-0-0-----0--------|-0-0-----0---0-0-|-0-0-----<4>----||
|-0-0-----0--------|-0-0-----0--------|-0-0-----0---0-0-|-0-0------------||
|
| E E E E E E  E E   E E E E E E  E E   E E E E E E E E   E E E E  H
|----------------5-|----------------5-|---------------5-|---------<4>----||
|---0-2p0-3p0------|---0-2p0-3p0------|---0-2p0-3p0-----|---0-2p0-<4>----||
|-3------------3---|-3------------3---|-3-----------3---|-3-------<4>----||
|------------------|------------------|-----------------|---------<4>----||
|------------------|------------------|-----------------|---------<4>----||
|------------------|------------------|-----------------|----------------||
|
| E E E E E E  E E   E E E E E E  E E   E E E E E E E E   E E E E  H
|------------------|------------------|-----------------|---------<4>----||
|------------------|------------------|-----------------|---------<4>----||
|------------------|------------------|-----------------|---------<4>----||
|------------------|------------------|-----------------|---------<4>----||
|-1-1-1-1-1-1--1-1-|-1-1-1-1-1-1--1-1-|-4-4-4-4-4-4-4-4-|-4-4-4-4-<4>----||
|-1-1-1-1-1-1--1-1-|-1-1-1-1-1-1--1-1-|-4-4-4-4-4-4-4-4-|-4-4-4-4--------||


 "I thought you knew.."
  Slower Q=131
  A
  PM      PM--------------------------------------------------------------|
  E Q.    Q   Q     Q    Q      Q   Q     Q   Q  Q   Q      Q   Q   E E E E
|----------------|---------------------|----------------|-------------------|
|----------------|---------------------|----------------|-------------------|
|----------------|---------------------|----------------|-------------------|
|----------------|---------------------|----------------|-------------------|
|-0-------0---0--|--0----0------0---0--|--0---0--0---0--|---0---0---0-0-0-0-|
|-0-------0---0--|--0----0------0---0--|--0---0--0---0--|---0---0---0-0-0-0-|
|
| PM                                                            PM------|
| E Q.    Q   Q     Q    Q   a  Q   Q     W                +Q   Q   Q   Q
|----------------|------13--13s17--13--|-13-------------|-(13)--------------|
|----------------|-11------------------|-17-------------|-(17)--------------|
|------------14--|---------------------|----------------|-------------------|
|--------12------|---------------------|----------------|-------------------|
|-0--------------|---------------------|----------------|-------0---0---0---|
|-0--------------|---------------------|----------------|-------0---0---0---|
|
| PM      PM--------------------------------------------------------------|
| E Q.    Q   Q     E E  Q      Q   Q     E E Q  E E Q      Q   E E E E E E
|----------------|---------------------|----------------|-------------------|
|----------------|---------------------|----------------|-------------------|
|----------------|---------------------|----------------|-------------------|
|----------------|---------------------|----------------|-------------------|
|-0-------0---0--|--0-0--0------0---0--|--0-0-0--0-0-0--|---0---0-0-0-0-0-0-|
|-0-------0---0--|--0-0--0------0---0--|--0-0-0--0-0-0--|---0---0-0-0-0-0-0-|


  PM                                                            PM----------|
  E Q.    Q   Q     Q    Q   a  Q   Q     W                +Q   Q    E  E E E
|----------------|------13--13s17--13--|-13-------------|-(13)----------------|
|----------------|-11------------------|-17-------------|-(17)----------------|
|------------14--|---------------------|----------------|---------------------|
|--------12------|---------------------|----------------|---------------------|
|-0--------------|---------------------|----------------|-------0----0--0-0-0-|
|-0--------------|---------------------|----------------|-------0----0--0-0-0-|
|
| PM      PM----------------------------------------------------------------|
| E Q.    Q   Q     E E  Q      Q   Q     E E Q  E E Q      Q   E E  E  E E E
|----------------|---------------------|----------------|---------------------|
|----------------|---------------------|----------------|---------------------|
|----------------|---------------------|----------------|---------------------|
|----------------|---------------------|----------------|---------------------|
|-0-------0---0--|--0-0--0------0---0--|--0-0-0--0-0-0--|---0---0-0--0--0-0-0-|
|-0-------0---0--|--0-0--0------0---0--|--0-0-0--0-0-0--|---0---0-0--0--0-0-0-|
|
|                                                                    <
| PM      PM----------------------------------------------------|
| E Q.    Q   Q     Q    Q      Q   Q     Q   Q  Q   Q      Q   Q    H
|----------------|---------------------|----------------|-----------<4>-------|
|----------------|---------------------|----------------|-----------<4>-------|
|----------------|---------------------|----------------|-----------<4>-------|
|----------------|---------------------|----------------|-----------<4>-------|
|-0-------0---0--|--0----0------0---0--|--0---0--0---0--|---0---0---<4>-------|
|-0-------0---0--|--0----0------0---0--|--0---0--0---0--|---0---0-------------|


    PM
    E Q.    Q   Q     Q    Q   a  Q   Q
||-----------------|------13--13s17--13--|
||o----------------|-11------------------|
||-------------14--|---------------------|
||---------12------|---------------------|
||o-0--------------|---------------------|
||--0--------------|---------------------|
|
|   PM      PM----------------------------
|   E Q.    Q   Q     E E  Q      Q   Q
||-----------------|---------------------|
||o----------------|---------------------|
||-----------------|---------------------|
||-----------------|---------------------|
||o-0-------0---0--|--0-0--0------0---0--|
||--0-------0---0--|--0-0--0------0---0--|
|
|   PM      PM----------------------------
|   E Q.    Q   Q     Q    Q      Q   Q
||-----------------|---------------------|
||o----------------|---------------------|
||-----------------|---------------------|
||-----------------|---------------------|
||o-0-------0---0--|--0----0------0---0--|
||--0-------0---0--|--0----0------0---0--|


                         PM--------|
   W                +Q   Q   E E E E
|-13-------------|-(13)---------------||
|-17-------------|-(17)--------------o||
|----------------|--------------------||
|----------------|--------------------||
|----------------|-------0---0-0-0-0-o||
|----------------|-------0---0-0-0-0--||
|
|----------------------------------|
|  E E Q  E E Q      Q   E E E E E E
|----------------|--------------------||
|----------------|-------------------o||
|----------------|--------------------||
|----------------|--------------------||
|--0-0-0--0-0-0--|---0---0-0-0-0-0-0-o||
|--0-0-0--0-0-0--|---0---0-0-0-0-0-0--||
|
|----------------------------------|
|  Q   Q  Q   Q      Q   Q   E E E E
|----------------|--------------------||
|----------------|-------------------o||
|----------------|--------------------||
|----------------|--------------------||
|--0---0--0---0--|---0---0---0-0-0-0-o||
|--0---0--0---0--|---0---0---0-0-0-0--||


 "You never knew me at.."
      PM     PM       PM     PM
   Q  Q   Q  Q     Q  Q   Q  Q
|-13-----13-----|-13-----13-----|
|-17-----17-----|-17-----17-----|
|---------------|---------------|
|---------------|---------------|
|-----0------0--|-----0------0--|
|-----0------0--|-----0------0--|
|
|     PM     PM       PM     PM
|  Q  Q   Q  Q     Q  Q   Q  Q
|-13-----13-----|-13-----13-----|
|-17-----17-----|-17-----17-----|
|---------------|---------------|
|---------------|---------------|
|-----0------0--|-----0------0--|
|-----0------0--|-----0------0--|
|
|  PM----------------------------
|  Q  Q   Q  Q     Q  Q   Q  Q
|---------------|---------------|
|---------------|---------------|
|---------------|---------------|
|---------------|---------------|
|--0--0---0--0--|--0--0---0--0--|
|--0--0---0--0--|--0--0---0--0--|


   E  E  E  E  E  E  E  E    E  E  E  E  E  E  E  E
|-13-13-13-13-13-13-13-13-|-13-13-13-13-13-13-13-13-|
|-17-17-17-17-17-17-17-17-|-17-17-17-17-17-17-17-17-|
|-------------------------|-------------------------|
|-------------------------|-------------------------|
|-------------------------|-------------------------|
|-------------------------|-------------------------|
|
|        PM          PM            PM          PM
|  Q     Q     Q     Q       Q     Q     Q     Q
|-13----------13----------|-13----------13----------|
|-17----------17----------|-17----------17----------|
|-------------------------|-------------------------|
|-------------------------|-------------------------|
|--------0-----------0----|--------0-----------0----|
|--------0-----------0----|--------0-----------0----|
|
|---------------------------------------------|
|  Q     Q     Q     Q       Q     Q     Q     Q
|-------------------------|-------------------------|
|-------------------------|-------------------------|
|-------------------------|-------------------------|
|-------------------------|-------------------------|
|--0-----0-----0-----0----|--0-----0-----0-----0----|
|--0-----0-----0-----0----|--0-----0-----0-----0----|


  Gtrs I, II
  W             +H      H       W             +W
|-------------|---------------|-------------|--------------*|
|-------------|---------------|-------------|--------------*|
|-------------|---------------|-------------|--------------*|
|-3-----------|-(3)-----0-----|-2-----------|-(2)----------*|
|-0-----------|-(0)-----0-----|-0-----------|-(0)----------*|
|-0-----------|-(0)-----0-----|-0-----------|-(0)----------*|
|
| Gtr III
| PM-----------------------------------------------|
| Q  Q  Q  Q     Q   Q  Q  Q    Q  Q  Q  Q     Q   Q  H
|-------------|---------------|-------------|--------------*|
|-------------|---------------|-------------|--------------*|
|-------------|---------------|-------------|--------------*|
|-------------|---------------|-------------|--------------*|
|-0--0--0--0--|--0---0--0--0--|-0--0--0--0--|--0---0-------*|
|-0--0--0--0--|--0---0--0--0--|-0--0--0--0--|--0---0-------*|



Duration Legend
---------------
W - whole; H - half; Q - quarter; E - 8th; S - 16th; T - 32nd; X - 64th; a - acciaccatura
+ - note tied to previous; . - note dotted; .. - note double dotted
Uncapitalized letters represent notes that are staccato (1/2 duration)
Irregular groupings are notated above the duration line
Duration letters will always appear directly above the note/fret number it represents the
duration for.  Duration letters with no fret number below them represent rests.  Multi-
bar rests are notated in the form Wxn, where n is the number of bars to rest for.  Low
melody durations appear below the staff

Tablature Legend
----------------
 h   - hammer-on
 p   - pull-off
 b   - bend
 pb  - pre-bend
 r   - bend release (if no number after the r, then release immediately)
 /\  - slide into or out of (from/to "nowhere")
 s   - legato slide
 S   - shift slide
 - natural harmonic
[n]  - artificial harmonic
n(n) - tapped harmonic
 ~   - vibrato
 tr  - trill
 T   - tap
 TP  - trem. picking
 PM  - palm muting
\n/  - tremolo bar dip; n = amount to dip
 \n  - tremolo bar down
 n/  - tremolo bar up
/n\  - tremolo bar inverted dip
 =   - hold bend; also acts as connecting device for hammers/pulls
 <> - volume swell (louder/softer)
 x   - on rhythm slash represents muted slash
 o   - on rhythm slash represents single note slash

Misc Legend
-----------
 |  - bar
||  - double bar
||o - repeat start
o|| - repeat end
*|  - double bar (ending)
 :  - bar (freetime)
 $  - Segno
 &  - Coda
Tempo markers -  = BPM(8/16=s8/s16), where s8 = swing 8ths, s16 = swing 16ths


** Generated using Power Tab Editor by Brad Larsen: The Official Power Tab Web Site
Related for Angels Or Vultures - Our Scars On Earth tab