Song name
# A B C D E F G H I J K L M N O P Q R S T U V W X Y Z

Misc Unsigned Bands - Sopiz - High School Life tab

Help us improve GuitareTab! Take a short survey!
Highlighted       Show chord diagrams
Intro: C#m(hold)-B(hold)-A(hold)-B(hold)
       C#m(hold)-B(hold)-A(hold)(hold)
       C#m-B-A-B-C#m-B-A(hold)(hold)

e----------------------------------------I
b-----------------------------4s5-4------I
g---666-898----6-8-6----4h6-4------6-----I
d-----------99-------77------------------I
a----------------------------------------I
E----------------------------------------I

e----------------------------------------I
b----------------------------------------I
g---666-89-11-989-13-11-9----------------I
d----------------------------------------I
a----------------------------------------I
E----------------------------------------I

Base:

A-------------------------------------I
E---9--7--5--7--9--7--5(hold)(hold)---I

A-----------------------------------------666-7---666-7-----------------I
E---9999999--7777777-5555555--7777777--999-----777------5(hold)(hold)---I

Verse:

Base:

D-----6-----4-----2-----4------6-----4-----2-------I
A---44--4-22--2-00--0-22- -2--44--4-22--2-00--2-----I
E--------------------------------------------------I

1st rif

e--99------------I
b----99----------I
g------11-9-8-6--I
d----------------I
a----------------I
E----------------I

C#m                      B
High school life, on my high school life
       A           B
Every memory, kay ganda
C#m                      B
High school days, oh my high school days
     A             B  
Are exciting, kay saya

ref:
E                     B
There are times, may problema ka
          A               E
Kung ang homework, left undone
E                   B
Pray ka lang, 'wag tawagin ka
      A(hold)(hold) C#m-B-A-B-C#m-B-A-(hold)(hold)-C#m---
Upang di pagtawanan

verse II

Base:

D---------------------------66-44---44-22---22-00--------I
A-------------------------44------22------00------0-2----I
E---999-777-555-55-77-99---------------------------------I

2nd rif:

e---99----------------------------I
b-----99--------------------------I
g-------11-9-8-6-6/8-8/9-9/13-----I
d---------------------------------I
a---------------------------------I
E---------------------------------I

C#m                      B
High school love my one high school love
        A            B
Not infatuation or crush
C#m                 B
Tunay 'to s'ya ang buhay ko
               A          B
Di n'yo lang alam ako'y nagba-blush

ref:
E                 B
Bakit nga ba ang first love ko
      A              E
Ay di serious, so it seems
E                   B
Kung alam lang ng first love ko
        A(hold)(hold)    C#m----
He is always in my dreams

Chorus:
C#m
Ang saya ng high school
B
Same in yours and my school
A           B
Di na mapapantayan
C#m                    B
T'yak ganyan ang buhay na sadyang makulay
A              B--C#m-B-A-B-C#m-B-A(hold)(hold)-C#m---
Alaala kailan man


C#m                      B
High school life, on my high school life
       A           B
Every memory, kay ganda
C#m                      B
High school days, oh my high school days
     A             B  
Are exciting, kay saya

ref:
E                           B
High school life, ba't ang high school life
    A              B
Ay walang kasing saya?
E              B
Bakit kung Graduation na'y
A                 adlib
Luluha kang talaga?

===C#m-B-A-B (4x)

Chorus:
C#m
Ang saya ng high school
B
Same in yours and my school
A           B
Di na mapapantayan
C#m                    B
T'yak ganyan ang buhay na sadyang makulay
A              B
Alaala kailan man

C#m                      B
High school life, on my high school life
       A           B
Every memory, kay ganda
C#m                      B
High school days, oh my high school days
     A             B  
Are exciting, kay saya

ref:
E                           B
High school life, ba't ang high school life
    A              B
Ay walang kasing saya?
E              B
Bakit kung Graduation na'y
A                 C#m---
Luluha kang talaga?

E                           B
High school life, ba't ang high school life
    A              B
Ay walang kasing saya?
E              B
Bakit kung Graduation na'y
A                 C#m(hold)
Luluha kang talaga?

[fin]
Related for Sopiz - High School Life tab