Song name
# A B C D E F G H I J K L M N O P Q R S T U V W X Y Z

Misc Unsigned Bands - Sopiz - Prinsesa Ng Kaba tab

Highlighted       Show chord diagrams
Prinsesa ng Kaba by Sopiz

Note: Kapag acoustic guitar po ang ginamit
nyo, I suggest na ito ang gamitin nyong chords:

e--3----3----3----3-----I
b--3----3----3----3-----I
g--0----0----2----0-----I
d--0----2----0----2-----I
a--2----2----x----3-----I
E--3----0----x----x-----I
   G   Em    D    C

G
Ano bang gagawin
Em
Puso bang susundin
D
Mahal kita pero
   C
Di ka naman makuha sa tingin

...This is how to play the base here:

D-----------------------------I
A---------------5~-1010-3~----I
E---3~-55-0~-22---------------I

~ means continue strumming or playing that note...
(timingan nyo na lang po)


G
Prinsesa ng kaba
Em
Kapag nandyan ka na
D
Nanginginig ang tuhod
C
Na parang kakaiba

ref:

e---------------------------------------------I
b---------------------------------------------I
g---999--777--555--555-5-5/7------------------I
d---999--777--555--555-5-5/7---999--777-5~----I
a---777--555--333--333-3-3/5---777--555-3~----I
E---------------------------------------------I

Em          D        C
Mahal kita, mahal kita
     C          C-D
Makinig ka sa akin
Em         D       C---
At kung mawawala ka ay

Hahanapin pa rin

Chorus:
G       D           Em
Nagtataka sa puso kong
         C...
Parang naliligaw
G       D           Em
Nagtatakang nagtatanong
            C       (hold)        
Kung bakit ikaw ang syang sinisigaw

G-D-Em-C-D-G-D-Em-C-D(hold)

....this is how to play the base after the chorus
Base:

D---------------------------------------------------------------------I
A-----22-5~-1010-7~-1010-3~-5~----22-5~-1010-7~-1010-333333-5(hold)---I
E---3~--------------------------3~------------------------------------I

G               Em
Ano kaya kapag ako
                D
sayo'y magpakilala
                 C
Pangalan ko kaya ay
Palagi mong maaalala
G
Mahal kita sa 
    Em 
Panaginip lang kayang sabihin
D
Kung magtanong ka ma'y
C
Hindi ko na kayang aminin

ref:
Em        D         C
Mahal kita mahal kita
      C          C-D
Makinig ka sa akin
Em      D
Ibigin din ako
C
Hindi mo rin ba kayang gawin

Chorus:
G       D           Em
Nagtataka sa puso kong
         C...
Parang naliligaw
G       D           Em
Nagtatakang nagtatanong
            C       (hold)        
Kung bakit ikaw ang syang sinisigaw

G-D-Em-C-D(2x)

Base:

D------------------------------------------------------------I
A-----22-5~-1010-7~-1010-3~-5~----22-5~-1010-7~-1010-3~-5~---I
E---3~--------------------------3~---------------------------I

Bridge:
Em    D         C
Ano kaya mamahalin mo rin kaya ako
Em      D        C               (hold)
Magpapaakit ka kaya nang buong buo

Chorus:
G       D           Em
Nagtataka sa puso kong
         C...
Parang naliligaw
G       D           Em
Nagtatakang nagtatanong
            C       (hold)        G-D-Em-C-D...
Kung bakit ikaw ang syang sinisigaw
                      G-D-Em-C-D--(hold)...
Ikaw ang syang sinisigaw

[fin]
Tap to rate this tab
# A B C D E F G H I J K L M N O P Q R S T U V W X Y Z