Song name
# A B C D E F G H I J K L M N O P Q R S T U V W X Y Z

Misc Unsigned Bands - Purple Vinyl - Sands Of Time tab

Help us improve GuitareTab! Take a short survey!
(this part goes 4 times, on the second time lyrics come in) VERSE: clean guitar

-----------------------------2--------------------------------------3--|
---2----------1---1----------3-----------2----------1---1-----------0--|
---2----------0---0----------2-----------2----------0---0-----------0--|
---2----------2---2----------0-----------2----------2---2-----------0--|
---0----------3---3----------------------0----------3---3-----------2--|
--------------------------------------------------------------------3--|


(this part goes 5 times) CHORUS: heavily distorted

-----------------------------------------------------------------------|
-----------------------------------------------------------------------|
--------------10---10--------7-----7-----------------------------------|
--7-----------10---10--------7-----7---------5-----5-------------------|
--7------------8----8--------5-----5---------5-----5-------------------|
--5------------------------------------------3-----3-------------------|

(this part goes once right after chorus)CHORUS OUTRO: heavily distorted except clean D chord

-----------------------------------------------------------------------|
-----------------------------------------------------------------------|
--------------10---10--------7-----------------------------------------|
---7----------10---10--------7-----------------------------------------|
---7-----------8----8--------5-----------------------------------------|
---5-------------------------------------------------------------------|


VERSE goes again 3 times
then CHORUS 5 times with CHORUS OUTRO
VERSE goes another 3 times
CHORUS 5 times NO outro (end on A)

   (then free bird rythm with A,C,D chords with long solos)

* for correct rythm watch the video n facebook*
Related for Purple Vinyl - Sands Of Time tab