Song name
# A B C D E F G H I J K L M N O P Q R S T U V W X Y Z

Misc Unsigned Bands - Blue Foundation - Eyes On Fire tab

Hey everyone.
This is my first tab (so please, be nice!)... I couldnt find any others online, so I 
I would try this out.
Please comment so I can improve it...
Its a great song that deserves to be played well! So please comment!!

thanks all :)


[Standard Tuning]

/ : Slide

Intro:

E|--------------------------------------------------------------------------|
B|--------------------------------------------------------------------------|
G|--------------------------------------------------------------------------|
D|--------------------------------------------------------------------------|
A|--------------5--3-3~-------------------5--3-3~---------------------------|
E|--0---0-0--3----------------0---0-0--3------------------------------------|


E|--------------------------------------------------------------------------|
B|--------------------------------------------------------------------------|
G|--------------------------------------------------------------------------|
D|-------------7--5~------------------7--5~---------------------------------|
A|----------5--5--3~---------------5--5--3~---------------------------------|
E|--0--0-0--3--------------0--0-0--3----------------------------------------|

Verse:

E|--------------------------------------------------------------------------|
B|--------------------------------------------------------------------------|
G|--------------------------------------------------------------------------|
D|------6--4--2/4--6-----------------2--------------------------------------|
A|-2/4----------------4---4-4---2-2-----4-----------------------------------|
E|--------------------------------------------------------------------------|
Tap to rate this tab
# A B C D E F G H I J K L M N O P Q R S T U V W X Y Z